  0
SECTION
  2
HEADER
  9
$ACADVER
  1
AC1015
  9
$ACADMAINTVER
 70
     6
  9
$DWGCODEPAGE
  3
ANSI_1252
  9
$INSBASE
 10
0.0
 20
0.0
 30
0.0
  9
$EXTMIN
 10
0.0
 20
0.0
 30
0.0
  9
$EXTMAX
 10
100.0
 20
100.0
 30
0.0
  9
$LIMMIN
 10
0.0
 20
0.0
  9
$LIMMAX
 10
100.0
 20
100.0
  9
$ORTHOMODE
 70
     0
  9
$REGENMODE
 70
     1
  9
$FILLMODE
 70
     1
  9
$QTEXTMODE
 70
     0
  9
$MIRRTEXT
 70
     1
  9
$LTSCALE
 40
1.0
  9
$ATTMODE
 70
     1
  9
$TEXTSIZE
 40
0.1666666667
  9
$TRACEWID
 40
0.05
  9
$TEXTSTYLE
  7
Standard
  9
$CLAYER
  8
0
  9
$CELTYPE
  6
ByLayer
  9
$CECOLOR
 62
   256
  9
$CELTSCALE
 40
1.0
  9
$DISPSILH
 70
     0
  9
$DIMSCALE
 40
1.0
  9
$DIMASZ
 40
0.09
  9
$DIMEXO
 40
0.05
  9
$DIMDLI
 40
0.38
  9
$DIMRND
 40
0.0
  9
$DIMDLE
 40
0.0
  9
$DIMEXE
 40
0.0625
  9
$DIMTP
 40
0.0
  9
$DIMTM
 40
0.0
  9
$DIMTXT
 40
0.1666666667
  9
$DIMCEN
 40
0.09
  9
$DIMTSZ
 40
0.0
  9
$DIMTOL
 70
     0
  9
$DIMLIM
 70
     0
  9
$DIMTIH
 70
     1
  9
$DIMTOH
 70
     1
  9
$DIMSE1
 70
     0
  9
$DIMSE2
 70
     0
  9
$DIMTAD
 70
     0
  9
$DIMZIN
 70
     0
  9
$DIMBLK
  1

  9
$DIMASO
 70
     1
  9
$DIMSHO
 70
     1
  9
$DIMPOST
  1

  9
$DIMAPOST
  1

  9
$DIMALT
 70
     0
  9
$DIMALTD
 70
     2
  9
$DIMALTF
 40
25.4
  9
$DIMLFAC
 40
1.0
  9
$DIMTOFL
 70
     0
  9
$DIMTVP
 40
0.0
  9
$DIMTIX
 70
     0
  9
$DIMSOXD
 70
     0
  9
$DIMSAH
 70
     0
  9
$DIMBLK1
  1

  9
$DIMBLK2
  1

  9
$DIMSTYLE
  2
Standard
  9
$DIMCLRD
 70
     0
  9
$DIMCLRE
 70
     0
  9
$DIMCLRT
 70
     0
  9
$DIMTFAC
 40
1.0
  9
$DIMGAP
 40
0.06
  9
$DIMJUST
 70
     0
  9
$DIMSD1
 70
     0
  9
$DIMSD2
 70
     0
  9
$DIMTOLJ
 70
     1
  9
$DIMTZIN
 70
     0
  9
$DIMALTZ
 70
     0
  9
$DIMALTTZ
 70
     0
  9
$DIMUPT
 70
     0
  9
$DIMDEC
 70
     3
  9
$DIMTDEC
 70
     2
  9
$DIMALTU
 70
     2
  9
$DIMALTTD
 70
     2
  9
$DIMTXSTY
  7
Standard
  9
$DIMAUNIT
 70
     0
  9
$DIMADEC
 70
     0
  9
$DIMALTRND
 40
0.0
  9
$DIMAZIN
 70
     0
  9
$DIMDSEP
 70
    46
  9
$DIMATFIT
 70
     3
  9
$DIMFRAC
 70
     0
  9
$DIMLDRBLK
  1

  9
$DIMLUNIT
 70
     2
  9
$DIMLWD
 70
    -2
  9
$DIMLWE
 70
    -2
  9
$DIMTMOVE
 70
     0
  9
$LUNITS
 70
     2
  9
$LUPREC
 70
     3
  9
$SKETCHINC
 40
0.1
  9
$FILLETRAD
 40
0.5
  9
$AUNITS
 70
     0
  9
$AUPREC
 70
     0
  9
$MENU
  1
.
  9
$ELEVATION
 40
0.0
  9
$PELEVATION
 40
0.0
  9
$THICKNESS
 40
0.0
  9
$LIMCHECK
 70
     0
  9
$CHAMFERA
 40
0.5
  9
$CHAMFERB
 40
0.5
  9
$CHAMFERC
 40
1.0
  9
$CHAMFERD
 40
0.0
  9
$SKPOLY
 70
     0
  9
$TDCREATE
 40
2456204.404666748
  9
$TDUCREATE
 40
2456204.613000081
  9
$TDUPDATE
 40
2456204.404670382
  9
$TDUUPDATE
 40
2456204.613003715
  9
$TDINDWG
 40
0.0000000116
  9
$TDUSRTIMER
 40
0.0000000116
  9
$USRTIMER
 70
     1
  9
$ANGBASE
 50
0.0
  9
$ANGDIR
 70
     0
  9
$PDMODE
 70
     0
  9
$PDSIZE
 40
-1.0
  9
$PLINEWID
 40
0.0
  9
$SPLFRAME
 70
     0
  9
$SPLINETYPE
 70
     6
  9
$SPLINESEGS
 70
     8
  9
$HANDSEED
  5
521
  9
$SURFTAB1
 70
     6
  9
$SURFTAB2
 70
     6
  9
$SURFTYPE
 70
     6
  9
$SURFU
 70
     6
  9
$SURFV
 70
     6
  9
$UCSBASE
  2

  9
$UCSNAME
  2

  9
$UCSORG
 10
0.0
 20
0.0
 30
0.0
  9
$UCSXDIR
 10
1.0
 20
0.0
 30
0.0
  9
$UCSYDIR
 10
0.0
 20
1.0
 30
0.0
  9
$UCSORTHOREF
  2

  9
$UCSORTHOVIEW
 70
     0
  9
$UCSORGTOP
 10
0.0
 20
0.0
 30
0.0
  9
$UCSORGBOTTOM
 10
0.0
 20
0.0
 30
0.0
  9
$UCSORGLEFT
 10
0.0
 20
0.0
 30
0.0
  9
$UCSORGRIGHT
 10
0.0
 20
0.0
 30
0.0
  9
$UCSORGFRONT
 10
0.0
 20
0.0
 30
0.0
  9
$UCSORGBACK
 10
0.0
 20
0.0
 30
0.0
  9
$PUCSBASE
  2

  9
$PUCSNAME
  2

  9
$PUCSORG
 10
0.0
 20
0.0
 30
0.0
  9
$PUCSXDIR
 10
1.0
 20
0.0
 30
0.0
  9
$PUCSYDIR
 10
0.0
 20
1.0
 30
0.0
  9
$PUCSORTHOREF
  2

  9
$PUCSORTHOVIEW
 70
     0
  9
$PUCSORGTOP
 10
0.0
 20
0.0
 30
0.0
  9
$PUCSORGBOTTOM
 10
0.0
 20
0.0
 30
0.0
  9
$PUCSORGLEFT
 10
0.0
 20
0.0
 30
0.0
  9
$PUCSORGRIGHT
 10
0.0
 20
0.0
 30
0.0
  9
$PUCSORGFRONT
 10
0.0
 20
0.0
 30
0.0
  9
$PUCSORGBACK
 10
0.0
 20
0.0
 30
0.0
  9
$USERI1
 70
     0
  9
$USERI2
 70
     0
  9
$USERI3
 70
     0
  9
$USERI4
 70
     0
  9
$USERI5
 70
     0
  9
$USERR1
 40
0.0
  9
$USERR2
 40
0.0
  9
$USERR3
 40
0.0
  9
$USERR4
 40
0.0
  9
$USERR5
 40
0.0
  9
$WORLDVIEW
 70
     1
  9
$SHADEDGE
 70
     3
  9
$SHADEDIF
 70
    70
  9
$TILEMODE
 70
     1
  9
$MAXACTVP
 70
    64
  9
$PINSBASE
 10
0.0
 20
0.0
 30
0.0
  9
$PLIMCHECK
 70
     0
  9
$PEXTMIN
 10
1.0000000000E+20
 20
1.0000000000E+20
 30
1.0000000000E+20
  9
$PEXTMAX
 10
-1.0000000000E+20
 20
-1.0000000000E+20
 30
-1.0000000000E+20
  9
$PLIMMIN
 10
0.0
 20
0.0
  9
$PLIMMAX
 10
12.0
 20
9.0
  9
$UNITMODE
 70
     0
  9
$VISRETAIN
 70
     1
  9
$PLINEGEN
 70
     0
  9
$PSLTSCALE
 70
     1
  9
$TREEDEPTH
 70
  3020
  9
$CMLSTYLE
  2
Standard
  9
$CMLJUST
 70
     0
  9
$CMLSCALE
 40
1.0
  9
$PROXYGRAPHICS
 70
     1
  9
$MEASUREMENT
 70
     0
  9
$CELWEIGHT
370
    -1
  9
$ENDCAPS
280
     0
  9
$JOINSTYLE
280
     0
  9
$LWDISPLAY
290
     1
  9
$INSUNITS
 70
     1
  9
$HYPERLINKBASE
  1

  9
$STYLESHEET
  1

  9
$XEDIT
290
     1
  9
$CEPSNTYPE
380
     0
  9
$PSTYLEMODE
290
     1
  9
$FINGERPRINTGUID
  2
{581B3CBB-AC31-4DE4-925C-0DC8AE2F80BD}
  9
$VERSIONGUID
  2
{FAEB1C32-E019-11D5-929B-00C0DF256EC4}
  9
$EXTNAMES
290
     1
  9
$PSVPSCALE
 40
0.0
  9
$OLESTARTUP
290
     0
  0
ENDSEC
  0
SECTION
  2
CLASSES
  0
CLASS
  1
ACDBDICTIONARYWDFLT
  2
AcDbDictionaryWithDefault
  3
ObjectDBX Classes
 90
        0
280
     0
281
     0
  0
CLASS
  1
VISUALSTYLE
  2
AcDbVisualStyle
  3
ObjectDBX Classes
 90
     4095
280
     0
281
     0
  0
CLASS
  1
MATERIAL
  2
AcDbMaterial
  3
ObjectDBX Classes
 90
     1153
280
     0
281
     0
  0
CLASS
  1
ACDBPLACEHOLDER
  2
AcDbPlaceHolder
  3
ObjectDBX Classes
 90
        0
280
     0
281
     0
  0
CLASS
  1
LAYOUT
  2
AcDbLayout
  3
ObjectDBX Classes
 90
        0
280
     0
281
     0
  0
ENDSEC
  0
SECTION
  2
TABLES
  0
TABLE
  2
VPORT
  5
8
330
0
100
AcDbSymbolTable
 70
     1
  0
VPORT
  5
29
330
8
100
AcDbSymbolTableRecord
100
AcDbViewportTableRecord
  2
*Active
 70
     0
 10
0.0
 20
0.0
 11
1.0
 21
1.0
 12
50.0
 22
50.0
 13
0.0
 23
0.0
 14
0.5
 24
0.5
 15
0.5
 25
0.5
 16
0.0
 26
0.0
 36
1.0
 17
0.0
 27
0.0
 37
0.0
 40
100.0
 41
1.0
 42
50.0
 43
0.0
 44
0.0
 50
0.0
 51
0.0
 71
     0
 72
  2000
 73
     1
 74
     3
 75
     0
 76
     0
 77
     0
 78
     0
281
     0
 65
     1
110
0.0
120
0.0
130
0.0
111
1.0
121
0.0
131
0.0
112
0.0
122
1.0
132
0.0
 79
     0
146
0.0
  0
ENDTAB
  0
TABLE
  2
LTYPE
  5
5
330
0
100
AcDbSymbolTable
 70
     6
  0
LTYPE
  5
14
330
5
100
AcDbSymbolTableRecord
100
AcDbLinetypeTableRecord
  2
ByBlock
 70
     0
  3

 72
    65
 73
     0
 40
0.0
  0
LTYPE
  5
15
330
5
100
AcDbSymbolTableRecord
100
AcDbLinetypeTableRecord
  2
ByLayer
 70
     0
  3

 72
    65
 73
     0
 40
0.0
  0
LTYPE
  5
16
330
5
100
AcDbSymbolTableRecord
100
AcDbLinetypeTableRecord
  2
Continuous
 70
     0
  3
Solid line
 72
    65
 73
     0
 40
0.0
  0
LTYPE
  5
3F
330
5
100
AcDbSymbolTableRecord
100
AcDbLinetypeTableRecord
  2
HIDDEN
 70
     0
  3
Hidden __ __ __ __ __ __ __ __ __ __ __ __ __ __
 72
    65
 73
     2
 40
0.075
 49
0.05
 74
     0
 49
-0.025
 74
     0
  0
LTYPE
  5
40
330
5
100
AcDbSymbolTableRecord
100
AcDbLinetypeTableRecord
  2
PHANTOM
 70
     0
  3
Phantom ______  __  __  ______  __  __  ______
 72
    65
 73
     6
 40
0.5
 49
0.25
 74
     0
 49
-0.05
 74
     0
 49
0.05
 74
     0
 49
-0.05
 74
     0
 49
0.05
 74
     0
 49
-0.05
 74
     0
  0
LTYPE
  5
41
330
5
100
AcDbSymbolTableRecord
100
AcDbLinetypeTableRecord
  2
CENTER
 70
     0
  3
Center ____ _ ____ _ ____ _ ____ _ ____ _ ____
 72
    65
 73
     4
 40
0.4
 49
0.25
 74
     0
 49
-0.05
 74
     0
 49
0.05
 74
     0
 49
-0.05
 74
     0
  0
LTYPE
  5
42
330
5
100
AcDbSymbolTableRecord
100
AcDbLinetypeTableRecord
  2
CENTERX2
 70
     0
  3
Center (2x) ________  __  ________  __  _____
 72
    65
 73
     4
 40
0.8
 49
0.5
 74
     0
 49
-0.1
 74
     0
 49
0.1
 74
     0
 49
-0.1
 74
     0
  0
LTYPE
  5
43
330
5
100
AcDbSymbolTableRecord
100
AcDbLinetypeTableRecord
  2
DOT2
 70
     0
  3
Dot (.5x) ........................................
 72
    65
 73
     2
 40
0.025
 49
0.0
 74
     0
 49
-0.025
 74
     0
  0
ENDTAB
  0
TABLE
  2
LAYER
  5
2
330
0
100
AcDbSymbolTable
 70
     3
  0
LAYER
  5
10
330
2
100
AcDbSymbolTableRecord
100
AcDbLayerTableRecord
  2
0
 70
     0
 62
     7
  6
Continuous
370
    -3
390
F
  0
LAYER
  5
44
330
2
100
AcDbSymbolTableRecord
100
AcDbLayerTableRecord
  2
SLD-0
 70
     0
 62
    -7
  6
Continuous
370
    -3
390
F
  0
LAYER
  5
45
330
2
100
AcDbSymbolTableRecord
100
AcDbLayerTableRecord
  2
FORMAT
 70
     0
 62
     7
  6
Continuous
370
    -3
390
F
  0
ENDTAB
  0
TABLE
  2
STYLE
  5
3
330
0
100
AcDbSymbolTable
 70
     2
  0
STYLE
  5
11
330
3
100
AcDbSymbolTableRecord
100
AcDbTextStyleTableRecord
  2
Standard
 70
     0
 40
0.0
 41
1.0
 50
0.0
 71
     0
 42
0.1666666667
  3
txt
  4

  0
STYLE
  5
46
330
3
100
AcDbSymbolTableRecord
100
AcDbTextStyleTableRecord
  2
SLDTEXTSTYLE0
 70
     0
 40
0.0
 41
0.605
 50
0.0
 71
     0
 42
0.2
  3
TXT
  4

  0
ENDTAB
  0
TABLE
  2
VIEW
  5
6
330
0
100
AcDbSymbolTable
 70
     0
  0
ENDTAB
  0
TABLE
  2
UCS
  5
7
330
0
100
AcDbSymbolTable
 70
     0
  0
ENDTAB
  0
TABLE
  2
APPID
  5
9
330
0
100
AcDbSymbolTable
 70
     1
  0
APPID
  5
12
330
9
100
AcDbSymbolTableRecord
100
AcDbRegAppTableRecord
  2
ACAD
 70
     0
  0
ENDTAB
  0
TABLE
  2
DIMSTYLE
  5
A
330
0
100
AcDbSymbolTable
 70
     1
100
AcDbDimStyleTable
  0
DIMSTYLE
105
27
330
A
100
AcDbSymbolTableRecord
100
AcDbDimStyleTableRecord
  2
Standard
 70
     0
178
     0
340
11
  0
ENDTAB
  0
TABLE
  2
BLOCK_RECORD
  5
1
330
0
100
AcDbSymbolTable
 70
     2
  0
BLOCK_RECORD
  5
1F
330
1
100
AcDbSymbolTableRecord
100
AcDbBlockTableRecord
  2
*Model_Space
340
22
  0
BLOCK_RECORD
  5
1B
330
1
100
AcDbSymbolTableRecord
100
AcDbBlockTableRecord
  2
*Paper_Space
340
1E
  0
BLOCK_RECORD
  5
23
330
1
100
AcDbSymbolTableRecord
100
AcDbBlockTableRecord
  2
*Paper_Space0
340
26
  0
BLOCK_RECORD
  5
48
330
1
100
AcDbSymbolTableRecord
100
AcDbBlockTableRecord
  2
SW_BROKEN_VIEW_0
340
0
102
{BLKREFS
331
4B
102
}
  0
ENDTAB
  0
ENDSEC
  0
SECTION
  2
BLOCKS
  0
BLOCK
  5
20
330
1F
100
AcDbEntity
  8
0
100
AcDbBlockBegin
  2
*Model_Space
 70
     0
 10
0.0
 20
0.0
 30
0.0
  3
*Model_Space
  1

  0
ENDBLK
  5
21
330
1F
100
AcDbEntity
  8
0
100
AcDbBlockEnd
  0
BLOCK
  5
1C
330
1B
100
AcDbEntity
 67
     1
  8
0
100
AcDbBlockBegin
  2
*Paper_Space
 70
     0
 10
0.0
 20
0.0
 30
0.0
  3
*Paper_Space
  1

  0
ENDBLK
  5
1D
330
1B
100
AcDbEntity
 67
     1
  8
0
100
AcDbBlockEnd
  0
BLOCK
  5
24
330
23
100
AcDbEntity
  8
0
100
AcDbBlockBegin
  2
*Paper_Space0
 70
     0
 10
0.0
 20
0.0
 30
0.0
  3
*Paper_Space0
  1

  0
ENDBLK
  5
25
330
23
100
AcDbEntity
  8
0
100
AcDbBlockEnd
  0
BLOCK
  5
49
330
48
100
AcDbEntity
  8
0
100
AcDbBlockBegin
  2
SW_BROKEN_VIEW_0
 70
     0
 10
0.0
 20
0.0
 30
0.0
  3
SW_BROKEN_VIEW_0
  1

  0
ENDBLK
  5
4A
330
48
100
AcDbEntity
  8
0
100
AcDbBlockEnd
  0
ENDSEC
  0
SECTION
  2
ENTITIES
  0
MTEXT
  5
47
330
1F
100
AcDbEntity
  8
FORMAT
100
AcDbMText
 10
33.9280963315
 20
47.0847981827
 30
0.0
 40
0.2291666667
 41
0.0
 71
     1
 72
     1
  1
FL15 66 2CA
  7
SLDTEXTSTYLE0
 73
     1
 44
1.0
  0
INSERT
  5
4B
330
1F
100
AcDbEntity
  8
0
  6
Continuous
 62
     7
100
AcDbBlockReference
  2
SW_BROKEN_VIEW_0
 10
0.0
 20
0.0
 30
0.0
  0
LINE
  5
4C
330
1F
100
AcDbEntity
  8
0
  6
Continuous
 62
     7
370
    30
100
AcDbLine
 10
-61.6541451036
 20
-22.9739953364
 30
0.0
 11
-17.7672991282
 21
-22.9739953364
 31
0.0
  0
LINE
  5
4D
330
1F
100
AcDbEntity
  8
0
  6
Continuous
 62
     7
370
    30
100
AcDbLine
 10
-17.7672991282
 20
-22.9739953364
 30
0.0
 11
-17.7672991282
 21
-22.9889953498
 31
0.0
  0
LINE
  5
4E
330
1F
100
AcDbEntity
  8
0
  6
Continuous
 62
     7
370
    30
100
AcDbLine
 10
-17.7672991282
 20
-23.3329954026
 30
0.0
 11
-17.7672991282
 21
-22.9889953498
 31
0.0
  0
LINE
  5
4F
330
1F
100
AcDbEntity
  8
0
  6
Continuous
 62
     7
370
    30
100
AcDbLine
 10
-17.7672991282
 20
-23.3479951226
 30
0.0
 11
-61.6541451036
 21
-23.3479951226
 31
0.0
  0
LINE
  5
50
330
1F
100
AcDbEntity
  8
0
  6
Continuous
 62
     7
370
    30
100
AcDbLine
 10
-17.7672991282
 20
-23.3329954026
 30
0.0
 11
-17.7672991282
 21
-23.3479951226
 31
0.0
  0
LINE
  5
51
330
1F
100
AcDbEntity
  8
0
  6
Continuous
 62
     7
370
    30
100
AcDbLine
 10
-17.7672991282
 20
-23.3479951226
 30
0.0
 11
-17.7672991282
 21
-23.3523886185
 31
0.0
  0
LINE
  5
52
330
1F
100
AcDbEntity
  8
0
  6
Continuous
 62
     7
370
    30
100
AcDbLine
 10
-17.7672991282
 20
-23.4616018102
 30
0.0
 11
-17.7672991282
 21
-23.3523886185
 31
0.0
  0
LINE
  5
53
330
1F
100
AcDbEntity
  8
0
  6
Continuous
 62
     7
370
    30
100
AcDbLine
 10
-17.7672991282
 20
-23.4616018102
 30
0.0
 11
-17.7672991282
 21
-23.4722083277
 31
0.0
  0
LINE
  5
54
330
1F
100
AcDbEntity
  8
0
  6
Continuous
 62
     7
370
    30
100
AcDbLine
 10
-17.7672991282
 20
-22.9739953364
 30
0.0
 11
-17.7672991282
 21
-22.4879951374
 31
0.0
  0
LINE
  5
55
330
1F
100
AcDbEntity
  8
0
  6
Continuous
 62
     7
370
    30
100
AcDbLine
 10
-61.6541451036
 20
-22.472995124
 30
0.0
 11
-17.7672991282
 21
-22.472995124
 31
0.0
  0
LINE
  5
56
330
1F
100
AcDbEntity
  8
0
  6
Continuous
 62
     7
370
    30
100
AcDbLine
 10
-17.7672991282
 20
-22.472995124
 30
0.0
 11
-17.7672991282
 21
-22.4879951374
 31
0.0
  0
LINE
  5
57
330
1F
100
AcDbEntity
  8
0
  6
Continuous
 62
     7
370
    30
100
AcDbLine
 10
-17.7672991282
 20
-24.0829951919
 30
0.0
 11
-17.7672991282
 21
-23.4722083277
 31
0.0
  0
LINE
  5
58
330
1F
100
AcDbEntity
  8
0
  6
Continuous
 62
     7
370
    30
100
AcDbLine
 10
-17.7672991282
 20
-24.0979952052
 30
0.0
 11
-61.6541451036
 21
-24.0979952052
 31
0.0
  0
LINE
  5
59
330
1F
100
AcDbEntity
  8
0
  6
Continuous
 62
     7
370
    30
100
AcDbLine
 10
-17.7672991282
 20
-24.0829951919
 30
0.0
 11
-17.7672991282
 21
-24.0979952052
 31
0.0
  0
LINE
  5
5A
330
1F
100
AcDbEntity
  8
0
  6
Continuous
 62
     7
370
    30
100
AcDbLine
 10
-61.6541451036
 20
-29.7649953929
 30
0.0
 11
-17.7672991282
 21
-29.7649953929
 31
0.0
  0
LINE
  5
5B
330
1F
100
AcDbEntity
  8
0
  6
Continuous
 62
     7
370
    30
100
AcDbLine
 10
-17.7672991282
 20
-29.7649953929
 30
0.0
 11
-17.7672991282
 21
-29.779995113
 31
0.0
  0
LINE
  5
5C
330
1F
100
AcDbEntity
  8
0
  6
Continuous
 62
     7
370
    30
100
AcDbLine
 10
-17.7672991282
 20
-29.779995113
 30
0.0
 11
-17.7672991282
 21
-30.1239951657
 31
0.0
  0
LINE
  5
5D
330
1F
100
AcDbEntity
  8
0
  6
Continuous
 62
     7
370
    30
100
AcDbLine
 10
-17.7672991282
 20
-30.1389951791
 30
0.0
 11
-61.6541451036
 21
-30.1389951791
 31
0.0
  0
LINE
  5
5E
330
1F
100
AcDbEntity
  8
0
  6
Continuous
 62
     7
370
    30
100
AcDbLine
 10
-17.7672991282
 20
-30.1239951657
 30
0.0
 11
-17.7672991282
 21
-30.1389951791
 31
0.0
  0
LINE
  5
5F
330
1F
100
AcDbEntity
  8
0
  6
Continuous
 62
     7
370
    30
100
AcDbLine
 10
-17.7672991282
 20
-29.760601897
 30
0.0
 11
-17.7672991282
 21
-29.7649953929
 31
0.0
  0
LINE
  5
60
330
1F
100
AcDbEntity
  8
0
  6
Continuous
 62
     7
370
    30
100
AcDbLine
 10
-17.7672991282
 20
-29.6513887053
 30
0.0
 11
-17.7672991282
 21
-29.760601897
 31
0.0
  0
LINE
  5
61
330
1F
100
AcDbEntity
  8
0
  6
Continuous
 62
     7
370
    30
100
AcDbLine
 10
-17.7672991282
 20
-29.6407821878
 30
0.0
 11
-17.7672991282
 21
-29.6513887053
 31
0.0
  0
LINE
  5
62
330
1F
100
AcDbEntity
  8
0
  6
Continuous
 62
     7
370
    30
100
AcDbLine
 10
-61.6541451036
 20
-29.0149953103
 30
0.0
 11
-17.7672991282
 21
-29.0149953103
 31
0.0
  0
LINE
  5
63
330
1F
100
AcDbEntity
  8
0
  6
Continuous
 62
     7
370
    30
100
AcDbLine
 10
-17.7672991282
 20
-29.0149953103
 30
0.0
 11
-17.7672991282
 21
-29.0299953237
 31
0.0
  0
LINE
  5
64
330
1F
100
AcDbEntity
  8
0
  6
Continuous
 62
     7
370
    30
100
AcDbLine
 10
-17.7672991282
 20
-29.0299953237
 30
0.0
 11
-17.7672991282
 21
-29.6407821878
 31
0.0
  0
LINE
  5
65
330
1F
100
AcDbEntity
  8
0
  6
Continuous
 62
     7
370
    30
100
AcDbLine
 10
-17.7672991282
 20
-30.1389951791
 30
0.0
 11
-17.7672991282
 21
-30.6249953781
 31
0.0
  0
LINE
  5
66
330
1F
100
AcDbEntity
  8
0
  6
Continuous
 62
     7
370
    30
100
AcDbLine
 10
-17.7672991282
 20
-30.6399953915
 30
0.0
 11
-61.6541451036
 21
-30.6399953915
 31
0.0
  0
LINE
  5
67
330
1F
100
AcDbEntity
  8
0
  6
Continuous
 62
     7
370
    30
100
AcDbLine
 10
-17.7672991282
 20
-30.6249953781
 30
0.0
 11
-17.7672991282
 21
-30.6399953915
 31
0.0
  0
LINE
  5
68
330
1F
100
AcDbEntity
  8
0
  6
Continuous
 62
     8
370
     0
100
AcDbLine
 10
-17.7672991282
 20
-22.9889953498
 30
0.0
 11
-61.6541451036
 21
-22.9889953498
 31
0.0
  0
LINE
  5
69
330
1F
100
AcDbEntity
  8
0
  6
Continuous
 62
     8
370
     0
100
AcDbLine
 10
-61.6541451036
 20
-23.3329954026
 30
0.0
 11
-17.7672991282
 21
-23.3329954026
 31
0.0
  0
LINE
  5
6A
330
1F
100
AcDbEntity
  8
0
  6
Continuous
 62
     8
370
     0
100
AcDbLine
 10
-17.7672991282
 20
-23.3523886185
 30
0.0
 11
-61.6541451036
 21
-23.3523886185
 31
0.0
  0
LINE
  5
6B
330
1F
100
AcDbEntity
  8
0
  6
Continuous
 62
     8
370
     0
100
AcDbLine
 10
-61.6541451036
 20
-23.4616018102
 30
0.0
 11
-17.7672991282
 21
-23.4616018102
 31
0.0
  0
LINE
  5
6C
330
1F
100
AcDbEntity
  8
0
  6
Continuous
 62
     8
370
     0
100
AcDbLine
 10
-17.7672991282
 20
-23.4722083277
 30
0.0
 11
-61.6541451036
 21
-23.4722083277
 31
0.0
  0
LINE
  5
6D
330
1F
100
AcDbEntity
  8
0
  6
Continuous
 62
     8
370
     0
100
AcDbLine
 10
-17.7672991282
 20
-22.4879951374
 30
0.0
 11
-61.6541451036
 21
-22.4879951374
 31
0.0
  0
LINE
  5
6E
330
1F
100
AcDbEntity
  8
0
  6
Continuous
 62
     8
370
     0
100
AcDbLine
 10
-61.6541451036
 20
-24.0829951919
 30
0.0
 11
-17.7672991282
 21
-24.0829951919
 31
0.0
  0
LINE
  5
6F
330
1F
100
AcDbEntity
  8
0
  6
Continuous
 62
     8
370
     0
100
AcDbLine
 10
-17.7672991282
 20
-29.779995113
 30
0.0
 11
-61.6541451036
 21
-29.779995113
 31
0.0
  0
LINE
  5
70
330
1F
100
AcDbEntity
  8
0
  6
Continuous
 62
     8
370
     0
100
AcDbLine
 10
-61.6541451036
 20
-30.1239951657
 30
0.0
 11
-17.7672991282
 21
-30.1239951657
 31
0.0
  0
LINE
  5
71
330
1F
100
AcDbEntity
  8
0
  6
Continuous
 62
     8
370
     0
100
AcDbLine
 10
-61.6541451036
 20
-29.760601897
 30
0.0
 11
-17.7672991282
 21
-29.760601897
 31
0.0
  0
LINE
  5
72
330
1F
100
AcDbEntity
  8
0
  6
Continuous
 62
     8
370
     0
100
AcDbLine
 10
-17.7672991282
 20
-29.6513887053
 30
0.0
 11
-61.6541451036
 21
-29.6513887053
 31
0.0
  0
LINE
  5
73
330
1F
100
AcDbEntity
  8
0
  6
Continuous
 62
     8
370
     0
100
AcDbLine
 10
-61.6541451036
 20
-29.6407821878
 30
0.0
 11
-17.7672991282
 21
-29.6407821878
 31
0.0
  0
LINE
  5
74
330
1F
100
AcDbEntity
  8
0
  6
Continuous
 62
     8
370
     0
100
AcDbLine
 10
-17.7672991282
 20
-29.0299953237
 30
0.0
 11
-61.6541451036
 21
-29.0299953237
 31
0.0
  0
LINE
  5
75
330
1F
100
AcDbEntity
  8
0
  6
Continuous
 62
     8
370
     0
100
AcDbLine
 10
-61.6541451036
 20
-30.6249953781
 30
0.0
 11
-17.7672991282
 21
-30.6249953781
 31
0.0
  0
LINE
  5
76
330
1F
100
AcDbEntity
  8
0
  6
Continuous
 62
     7
370
    30
100
AcDbLine
 10
-103.0540502885
 20
-29.7649953929
 30
0.0
 11
-103.0721663459
 21
-29.7545370071
 31
0.0
  0
LINE
  5
77
330
1F
100
AcDbEntity
  8
0
  6
Continuous
 62
     7
370
    30
100
AcDbLine
 10
-103.172166044
 20
-29.7545370071
 30
0.0
 11
-103.1902821014
 21
-29.7649953929
 31
0.0
  0
LINE
  5
78
330
1F
100
AcDbEntity
  8
0
  6
Continuous
 62
     7
370
    30
100
AcDbLine
 10
-103.053167952
 20
-29.7045066517
 30
0.0
 11
-103.0721663459
 21
-29.6935369917
 31
0.0
  0
LINE
  5
79
330
1F
100
AcDbEntity
  8
0
  6
Continuous
 62
     7
370
    30
100
AcDbLine
 10
-103.172166044
 20
-29.6935369917
 30
0.0
 11
-103.1911644379
 21
-29.7045066517
 31
0.0
  0
LINE
  5
7A
330
1F
100
AcDbEntity
  8
0
  6
Continuous
 62
     7
370
    30
100
AcDbLine
 10
-103.1911644379
 20
-29.7045066517
 30
0.0
 11
-103.1911644379
 21
-29.7055069068
 31
0.0
  0
LINE
  5
7B
330
1F
100
AcDbEntity
  8
0
  6
Continuous
 62
     7
370
    30
100
AcDbLine
 10
-103.053167952
 20
-29.7055069068
 30
0.0
 11
-103.053167952
 21
-29.7045066517
 31
0.0
  0
LINE
  5
7C
330
1F
100
AcDbEntity
  8
0
  6
Continuous
 62
     7
370
    30
100
AcDbLine
 10
-103.1911644379
 20
-29.7055069068
 30
0.0
 11
-103.172166044
 21
-29.7164762734
 31
0.0
  0
LINE
  5
7D
330
1F
100
AcDbEntity
  8
0
  6
Continuous
 62
     7
370
    30
100
AcDbLine
 10
-103.0721663459
 20
-29.7164762734
 30
0.0
 11
-103.053167952
 21
-29.7055069068
 31
0.0
  0
LINE
  5
7E
330
1F
100
AcDbEntity
  8
0
  6
Continuous
 62
     7
370
    30
100
AcDbLine
 10
-103.0721663459
 20
-29.7545370071
 30
0.0
 11
-103.0721663459
 21
-29.7164762734
 31
0.0
  0
LINE
  5
7F
330
1F
100
AcDbEntity
  8
0
  6
Continuous
 62
     7
370
    30
100
AcDbLine
 10
-103.172166044
 20
-29.7164762734
 30
0.0
 11
-103.172166044
 21
-29.7545370071
 31
0.0
  0
SPLINE
  5
80
330
1F
100
AcDbEntity
  8
0
  6
Continuous
 62
     7
370
    30
100
AcDbSpline
210
0.0
220
0.0
230
1.0
 70
     8
 71
     3
 72
     9
 73
     5
 74
     0
 42
0.00000001
 43
0.00000001
 12
1.0
 22
0.0
 32
0.0
 13
1.0
 23
0.0
 33
0.0
 40
0.0
 40
0.0
 40
0.0
 40
0.0
 40
0.5000058666002822
 40
0.9999999999999999
 40
0.9999999999999999
 40
0.9999999999999999
 40
0.9999999999999999
 10
-103.072166345903
 20
-29.67159767183977
 30
0.0
 10
-103.088834037808
 20
-29.62829611334725
 30
0.0
 10
-103.1221690304919
 20
-29.54169401248203
 30
0.0
 10
-103.1555005032131
 20
-29.62829679076311
 30
0.0
 10
-103.1721660440313
 20
-29.67159767183977
 30
0.0
  0
LINE
  5
81
330
1F
100
AcDbEntity
  8
0
  6
Continuous
 62
     7
370
    30
100
AcDbLine
 10
-103.0721663459
 20
-29.6935369917
 30
0.0
 11
-103.0721663459
 21
-29.6715976718
 31
0.0
  0
LINE
  5
82
330
1F
100
AcDbEntity
  8
0
  6
Continuous
 62
     7
370
    30
100
AcDbLine
 10
-103.172166044
 20
-29.6715976718
 30
0.0
 11
-103.172166044
 21
-29.6935369917
 31
0.0
  0
LINE
  5
83
330
1F
100
AcDbEntity
  8
0
  6
Continuous
 62
     7
370
    30
100
AcDbLine
 10
-103.8350447864
 20
-25.285995268
 30
0.0
 11
-81.835040799
 21
-25.285995268
 31
0.0
  0
LINE
  5
84
330
1F
100
AcDbEntity
  8
0
  6
Continuous
 62
     7
370
    30
100
AcDbLine
 10
-103.8350447864
 20
-28.7199952915
 30
0.0
 11
-81.835040799
 21
-28.7199952915
 31
0.0
  0
LINE
  5
85
330
1F
100
AcDbEntity
  8
0
  6
Continuous
 62
     7
370
    30
100
AcDbLine
 10
-80.3350453271
 20
-25.285995268
 30
0.0
 11
-61.904146349
 21
-25.285995268
 31
0.0
  0
LINE
  5
86
330
1F
100
AcDbEntity
  8
0
  6
Continuous
 62
     7
370
    30
100
AcDbLine
 10
-80.3350453271
 20
-28.7199952915
 30
0.0
 11
-61.904146349
 21
-28.7199952915
 31
0.0
  0
LINE
  5
87
330
1F
100
AcDbEntity
  8
0
  6
Continuous
 62
     7
370
    30
100
AcDbLine
 10
-105.5850418503
 20
-26.3384952661
 30
0.0
 11
-61.904146349
 21
-26.3384952661
 31
0.0
  0
LINE
  5
88
330
1F
100
AcDbEntity
  8
0
  6
Continuous
 62
     7
370
    30
100
AcDbLine
 10
-105.5850418503
 20
-26.353395254
 30
0.0
 11
-105.5850418503
 21
-26.3384952661
 31
0.0
  0
LINE
  5
89
330
1F
100
AcDbEntity
  8
0
  6
Continuous
 62
     7
370
    30
100
AcDbLine
 10
-105.5850418503
 20
-26.76059526
 30
0.0
 11
-105.5850418503
 21
-26.353395254
 31
0.0
  0
LINE
  5
8A
330
1F
100
AcDbEntity
  8
0
  6
Continuous
 62
     7
370
    30
100
AcDbLine
 10
-105.5850418503
 20
-26.7754952662
 30
0.0
 11
-61.904146349
 21
-26.7754952662
 31
0.0
  0
LINE
  5
8B
330
1F
100
AcDbEntity
  8
0
  6
Continuous
 62
     7
370
    30
100
AcDbLine
 10
-105.5850418503
 20
-26.7754952662
 30
0.0
 11
-105.5850418503
 21
-26.76059526
 31
0.0
  0
LINE
  5
8C
330
1F
100
AcDbEntity
  8
0
  6
Continuous
 62
     7
370
    30
100
AcDbLine
 10
-105.5850418503
 20
-26.3384952661
 30
0.0
 11
-105.5850418503
 21
-25.6028952272
 31
0.0
  0
LINE
  5
8D
330
1F
100
AcDbEntity
  8
0
  6
Continuous
 62
     7
370
    30
100
AcDbLine
 10
-105.5850418503
 20
-25.5879952393
 30
0.0
 11
-105.3350402583
 21
-25.5879952393
 31
0.0
  0
LINE
  5
8E
330
1F
100
AcDbEntity
  8
0
  6
Continuous
 62
     7
370
    30
100
AcDbLine
 10
-103.8350447864
 20
-25.5879952393
 30
0.0
 11
-81.835040799
 21
-25.5879952393
 31
0.0
  0
LINE
  5
8F
330
1F
100
AcDbEntity
  8
0
  6
Continuous
 62
     7
370
    30
100
AcDbLine
 10
-80.3350453271
 20
-25.5879952393
 30
0.0
 11
-61.904146349
 21
-25.5879952393
 31
0.0
  0
LINE
  5
90
330
1F
100
AcDbEntity
  8
0
  6
Continuous
 62
     7
370
    30
100
AcDbLine
 10
-105.5850418503
 20
-25.6028952272
 30
0.0
 11
-105.5850418503
 21
-25.5879952393
 31
0.0
  0
LINE
  5
91
330
1F
100
AcDbEntity
  8
0
  6
Continuous
 62
     7
370
    30
100
AcDbLine
 10
-105.5850418503
 20
-27.5100952884
 30
0.0
 11
-105.5850418503
 21
-26.7754952662
 31
0.0
  0
LINE
  5
92
330
1F
100
AcDbEntity
  8
0
  6
Continuous
 62
     7
370
    30
100
AcDbLine
 10
-105.5850418503
 20
-27.5249952762
 30
0.0
 11
-105.3350402583
 21
-27.5249952762
 31
0.0
  0
LINE
  5
93
330
1F
100
AcDbEntity
  8
0
  6
Continuous
 62
     7
370
    30
100
AcDbLine
 10
-105.5850418503
 20
-27.5249952762
 30
0.0
 11
-105.5850418503
 21
-27.5100952884
 31
0.0
  0
LINE
  5
94
330
1F
100
AcDbEntity
  8
0
  6
Continuous
 62
     7
370
    30
100
AcDbLine
 10
-105.3350402583
 20
-22.9739953364
 30
0.0
 11
-61.904146349
 21
-22.9739953364
 31
0.0
  0
LINE
  5
95
330
1F
100
AcDbEntity
  8
0
  6
Continuous
 62
     7
370
    30
100
AcDbLine
 10
-105.3350402583
 20
-22.9889953498
 30
0.0
 11
-105.3350402583
 21
-22.9739953364
 31
0.0
  0
LINE
  5
96
330
1F
100
AcDbEntity
  8
0
  6
Continuous
 62
     7
370
    30
100
AcDbLine
 10
-105.3350402583
 20
-23.3329954026
 30
0.0
 11
-105.3350402583
 21
-22.9889953498
 31
0.0
  0
LINE
  5
97
330
1F
100
AcDbEntity
  8
0
  6
Continuous
 62
     7
370
    30
100
AcDbLine
 10
-61.904146349
 20
-23.3479951226
 30
0.0
 11
-105.3350402583
 21
-23.3479951226
 31
0.0
  0
LINE
  5
98
330
1F
100
AcDbEntity
  8
0
  6
Continuous
 62
     7
370
    30
100
AcDbLine
 10
-105.3350402583
 20
-23.3479951226
 30
0.0
 11
-105.3350402583
 21
-23.3329954026
 31
0.0
  0
LINE
  5
99
330
1F
100
AcDbEntity
  8
0
  6
Continuous
 62
     7
370
    30
100
AcDbLine
 10
-105.3350402583
 20
-22.9739953364
 30
0.0
 11
-105.3350402583
 21
-22.4879951374
 31
0.0
  0
LINE
  5
9A
330
1F
100
AcDbEntity
  8
0
  6
Continuous
 62
     7
370
    30
100
AcDbLine
 10
-105.3350402583
 20
-22.472995124
 30
0.0
 11
-61.904146349
 21
-22.472995124
 31
0.0
  0
LINE
  5
9B
330
1F
100
AcDbEntity
  8
0
  6
Continuous
 62
     7
370
    30
100
AcDbLine
 10
-105.3350402583
 20
-22.4879951374
 30
0.0
 11
-105.3350402583
 21
-22.472995124
 31
0.0
  0
LINE
  5
9C
330
1F
100
AcDbEntity
  8
0
  6
Continuous
 62
     7
370
    30
100
AcDbLine
 10
-105.3350402583
 20
-29.7649953929
 30
0.0
 11
-61.904146349
 21
-29.7649953929
 31
0.0
  0
LINE
  5
9D
330
1F
100
AcDbEntity
  8
0
  6
Continuous
 62
     7
370
    30
100
AcDbLine
 10
-105.3350402583
 20
-29.779995113
 30
0.0
 11
-105.3350402583
 21
-29.7649953929
 31
0.0
  0
LINE
  5
9E
330
1F
100
AcDbEntity
  8
0
  6
Continuous
 62
     7
370
    30
100
AcDbLine
 10
-105.3350402583
 20
-29.779995113
 30
0.0
 11
-105.3350402583
 21
-30.1239951657
 31
0.0
  0
LINE
  5
9F
330
1F
100
AcDbEntity
  8
0
  6
Continuous
 62
     7
370
    30
100
AcDbLine
 10
-61.904146349
 20
-30.1389951791
 30
0.0
 11
-105.3350402583
 21
-30.1389951791
 31
0.0
  0
LINE
  5
A0
330
1F
100
AcDbEntity
  8
0
  6
Continuous
 62
     7
370
    30
100
AcDbLine
 10
-105.3350402583
 20
-30.1389951791
 30
0.0
 11
-105.3350402583
 21
-30.1239951657
 31
0.0
  0
LINE
  5
A1
330
1F
100
AcDbEntity
  8
0
  6
Continuous
 62
     7
370
    30
100
AcDbLine
 10
-103.8350447864
 20
-29.0149953103
 30
0.0
 11
-81.835040799
 21
-29.0149953103
 31
0.0
  0
LINE
  5
A2
330
1F
100
AcDbEntity
  8
0
  6
Continuous
 62
     7
370
    30
100
AcDbLine
 10
-80.3350453271
 20
-29.0149953103
 30
0.0
 11
-61.904146349
 21
-29.0149953103
 31
0.0
  0
LINE
  5
A3
330
1F
100
AcDbEntity
  8
0
  6
Continuous
 62
     7
370
    30
100
AcDbLine
 10
-105.3350402583
 20
-30.1389951791
 30
0.0
 11
-105.3350402583
 21
-30.6249953781
 31
0.0
  0
LINE
  5
A4
330
1F
100
AcDbEntity
  8
0
  6
Continuous
 62
     7
370
    30
100
AcDbLine
 10
-61.904146349
 20
-30.6399953915
 30
0.0
 11
-105.3350402583
 21
-30.6399953915
 31
0.0
  0
LINE
  5
A5
330
1F
100
AcDbEntity
  8
0
  6
Continuous
 62
     7
370
    30
100
AcDbLine
 10
-105.3350402583
 20
-30.6399953915
 30
0.0
 11
-105.3350402583
 21
-30.6249953781
 31
0.0
  0
LINE
  5
A6
330
1F
100
AcDbEntity
  8
0
  6
Continuous
 62
     7
370
    30
100
AcDbLine
 10
-103.1221685416
 20
-30.1819952957
 30
0.0
 11
-103.1221685416
 21
-30.1389951791
 31
0.0
  0
LINE
  5
A7
330
1F
100
AcDbEntity
  8
0
  6
Continuous
 62
     7
370
    30
100
AcDbLine
 10
-102.9971677456
 20
-30.1819952957
 30
0.0
 11
-102.9971677456
 21
-30.1389951791
 31
0.0
  0
LINE
  5
A8
330
1F
100
AcDbEntity
  8
0
  6
Continuous
 62
     7
370
    30
100
AcDbLine
 10
-103.1221685416
 20
-30.1819952957
 30
0.0
 11
-102.9971677456
 21
-30.1819952957
 31
0.0
  0
LINE
  5
A9
330
1F
100
AcDbEntity
  8
0
  6
Continuous
 62
     7
370
    30
100
AcDbLine
 10
-103.2471646443
 20
-30.1819952957
 30
0.0
 11
-103.2471646443
 21
-30.1389951791
 31
0.0
  0
LINE
  5
AA
330
1F
100
AcDbEntity
  8
0
  6
Continuous
 62
     7
370
    30
100
AcDbLine
 10
-103.2471646443
 20
-30.1819952957
 30
0.0
 11
-103.1221685416
 21
-30.1819952957
 31
0.0
  0
LINE
  5
AB
330
1F
100
AcDbEntity
  8
0
  6
Continuous
 62
     7
370
    30
100
AcDbLine
 10
-103.0721663459
 20
-29.7545370071
 30
0.0
 11
-103.172166044
 21
-29.7545370071
 31
0.0
  0
LINE
  5
AC
330
1F
100
AcDbEntity
  8
0
  6
Continuous
 62
     7
370
    30
100
AcDbLine
 10
-103.053167952
 20
-29.7045066517
 30
0.0
 11
-103.1911644379
 21
-29.7045066517
 31
0.0
  0
LINE
  5
AD
330
1F
100
AcDbEntity
  8
0
  6
Continuous
 62
     7
370
    30
100
AcDbLine
 10
-103.0721663459
 20
-29.6935369917
 30
0.0
 11
-103.172166044
 21
-29.6935369917
 31
0.0
  0
LINE
  5
AE
330
1F
100
AcDbEntity
  8
0
  6
Continuous
 62
     7
370
    30
100
AcDbLine
 10
-103.053167952
 20
-29.7055069068
 30
0.0
 11
-103.1911644379
 21
-29.7055069068
 31
0.0
  0
LINE
  5
AF
330
1F
100
AcDbEntity
  8
0
  6
Continuous
 62
     7
370
    30
100
AcDbLine
 10
-103.0721663459
 20
-29.7164762734
 30
0.0
 11
-103.172166044
 21
-29.7164762734
 31
0.0
  0
LINE
  5
B0
330
1F
100
AcDbEntity
  8
0
  6
Continuous
 62
     7
370
    30
100
AcDbLine
 10
-103.172166044
 20
-29.6715976718
 30
0.0
 11
-103.0721663459
 21
-29.6715976718
 31
0.0
  0
LINE
  5
B1
330
1F
100
AcDbEntity
  8
0
  6
Continuous
 62
     7
370
    30
100
AcDbLine
 10
-102.988766776
 20
-22.9309952199
 30
0.0
 11
-102.988766776
 21
-22.9739953364
 31
0.0
  0
LINE
  5
B2
330
1F
100
AcDbEntity
  8
0
  6
Continuous
 62
     7
370
    30
100
AcDbLine
 10
-103.1031983074
 20
-22.9309952199
 30
0.0
 11
-103.1031983074
 21
-22.9739953364
 31
0.0
  0
LINE
  5
B3
330
1F
100
AcDbEntity
  8
0
  6
Continuous
 62
     7
370
    30
100
AcDbLine
 10
-102.988766776
 20
-22.9309952199
 30
0.0
 11
-103.1031983074
 21
-22.9309952199
 31
0.0
  0
LINE
  5
B4
330
1F
100
AcDbEntity
  8
0
  6
Continuous
 62
     7
370
    30
100
AcDbLine
 10
-103.236600073
 20
-22.9309952199
 30
0.0
 11
-103.236600073
 21
-22.9739953364
 31
0.0
  0
LINE
  5
B5
330
1F
100
AcDbEntity
  8
0
  6
Continuous
 62
     7
370
    30
100
AcDbLine
 10
-103.1837631367
 20
-22.9309952199
 30
0.0
 11
-103.236600073
 21
-22.9309952199
 31
0.0
  0
LINE
  5
B6
330
1F
100
AcDbEntity
  8
0
  6
Continuous
 62
     7
370
    30
100
AcDbLine
 10
-103.1837631367
 20
-22.9739953364
 30
0.0
 11
-103.1837631367
 21
-22.9309952199
 31
0.0
  0
LINE
  5
B7
330
1F
100
AcDbEntity
  8
0
  6
Continuous
 62
     7
370
    30
100
AcDbLine
 10
-103.1560352437
 20
-22.9739953364
 30
0.0
 11
-103.1560352437
 21
-22.9309952199
 31
0.0
  0
LINE
  5
B8
330
1F
100
AcDbEntity
  8
0
  6
Continuous
 62
     7
370
    30
100
AcDbLine
 10
-103.1031983074
 20
-22.9309952199
 30
0.0
 11
-103.1560352437
 21
-22.9309952199
 31
0.0
  0
LINE
  5
B9
330
1F
100
AcDbEntity
  8
0
  6
Continuous
 62
     7
370
    30
100
AcDbLine
 10
-103.175714163
 20
-22.9309952199
 30
0.0
 11
-103.175714163
 21
-22.9519952973
 31
0.0
  0
LINE
  5
BA
330
1F
100
AcDbEntity
  8
0
  6
Continuous
 62
     7
370
    30
100
AcDbLine
 10
-103.1560352437
 20
-22.9519952973
 30
0.0
 11
-103.175714163
 21
-22.9519952973
 31
0.0
  0
LINE
  5
BB
330
1F
100
AcDbEntity
  8
0
  6
Continuous
 62
     7
370
    30
100
AcDbLine
 10
-103.175714163
 20
-22.9309952199
 30
0.0
 11
-103.1837631367
 21
-22.9309952199
 31
0.0
  0
LINE
  5
BC
330
1F
100
AcDbEntity
  8
0
  6
Continuous
 62
     7
370
    30
100
AcDbLine
 10
-103.1560352437
 20
-22.9309952199
 30
0.0
 11
-103.175714163
 21
-22.9309952199
 31
0.0
  0
LINE
  5
BD
330
1F
100
AcDbEntity
  8
0
  6
Continuous
 62
     7
370
    30
100
AcDbLine
 10
-103.2555656139
 20
-22.9309952199
 30
0.0
 11
-103.2555656139
 21
-22.9739953364
 31
0.0
  0
LINE
  5
BE
330
1F
100
AcDbEntity
  8
0
  6
Continuous
 62
     7
370
    30
100
AcDbLine
 10
-103.236600073
 20
-22.9309952199
 30
0.0
 11
-103.2555656139
 21
-22.9309952199
 31
0.0
  0
LINE
  5
BF
330
1F
100
AcDbEntity
  8
0
  6
Continuous
 62
     7
370
    30
100
AcDbLine
 10
-103.8350447864
 20
-23.4435945783
 30
0.0
 11
-81.835040799
 21
-23.4435945783
 31
0.0
  0
LINE
  5
C0
330
1F
100
AcDbEntity
  8
0
  6
Continuous
 62
     7
370
    30
100
AcDbLine
 10
-103.8350447864
 20
-25.0033957726
 30
0.0
 11
-81.835040799
 21
-25.0033957726
 31
0.0
  0
LINE
  5
C1
330
1F
100
AcDbEntity
  8
0
  6
Continuous
 62
     7
370
    30
100
AcDbLine
 10
-103.8350447864
 20
-26.8775946751
 30
0.0
 11
-81.835040799
 21
-26.8775946751
 31
0.0
  0
LINE
  5
C2
330
1F
100
AcDbEntity
  8
0
  6
Continuous
 62
     7
370
    30
100
AcDbLine
 10
-103.8350447864
 20
-28.4373957961
 30
0.0
 11
-81.835040799
 21
-28.4373957961
 31
0.0
  0
LINE
  5
C3
330
1F
100
AcDbEntity
  8
0
  6
Continuous
 62
     7
370
    30
100
AcDbLine
 10
-80.3350453271
 20
-23.4435945783
 30
0.0
 11
-61.904146349
 21
-23.4435945783
 31
0.0
  0
LINE
  5
C4
330
1F
100
AcDbEntity
  8
0
  6
Continuous
 62
     7
370
    30
100
AcDbLine
 10
-80.3350453271
 20
-25.0033957726
 30
0.0
 11
-61.904146349
 21
-25.0033957726
 31
0.0
  0
LINE
  5
C5
330
1F
100
AcDbEntity
  8
0
  6
Continuous
 62
     7
370
    30
100
AcDbLine
 10
-80.3350453271
 20
-26.8775946751
 30
0.0
 11
-61.904146349
 21
-26.8775946751
 31
0.0
  0
LINE
  5
C6
330
1F
100
AcDbEntity
  8
0
  6
Continuous
 62
     7
370
    30
100
AcDbLine
 10
-80.3350453271
 20
-28.4373957961
 30
0.0
 11
-61.904146349
 21
-28.4373957961
 31
0.0
  0
LINE
  5
C7
330
1F
100
AcDbEntity
  8
0
  6
Continuous
 62
     7
370
    30
100
AcDbLine
 10
-105.527211265
 20
-23.158995306
 30
0.0
 11
-105.527211265
 21
-23.272995349
 31
0.0
  0
LINE
  5
C8
330
1F
100
AcDbEntity
  8
0
  6
Continuous
 62
     7
370
    30
100
AcDbLine
 10
-105.4876093758
 20
-23.158995306
 30
0.0
 11
-105.4876093758
 21
-23.272995349
 31
0.0
  0
LINE
  5
C9
330
1F
100
AcDbEntity
  8
0
  6
Continuous
 62
     7
370
    30
100
AcDbLine
 10
-105.527211265
 20
-23.272995349
 30
0.0
 11
-105.4876093758
 21
-23.272995349
 31
0.0
  0
LINE
  5
CA
330
1F
100
AcDbEntity
  8
0
  6
Continuous
 62
     7
370
    30
100
AcDbLine
 10
-105.527211265
 20
-23.158995306
 30
0.0
 11
-105.4876093758
 21
-23.158995306
 31
0.0
  0
LINE
  5
CB
330
1F
100
AcDbEntity
  8
0
  6
Continuous
 62
     7
370
    30
100
AcDbLine
 10
-105.4876093758
 20
-23.272995349
 30
0.0
 11
-105.390439725
 21
-23.272995349
 31
0.0
  0
LINE
  5
CC
330
1F
100
AcDbEntity
  8
0
  6
Continuous
 62
     7
370
    30
100
AcDbLine
 10
-105.4876093758
 20
-23.158995306
 30
0.0
 11
-105.390439725
 21
-23.158995306
 31
0.0
  0
LINE
  5
CD
330
1F
100
AcDbEntity
  8
0
  6
Continuous
 62
     7
370
    30
100
AcDbLine
 10
-105.390439725
 20
-23.272995349
 30
0.0
 11
-105.3350402583
 21
-23.272995349
 31
0.0
  0
LINE
  5
CE
330
1F
100
AcDbEntity
  8
0
  6
Continuous
 62
     7
370
    30
100
AcDbLine
 10
-105.390439725
 20
-23.158995306
 30
0.0
 11
-105.3350402583
 21
-23.158995306
 31
0.0
  0
LINE
  5
CF
330
1F
100
AcDbEntity
  8
0
  6
Continuous
 62
     7
370
    30
100
AcDbLine
 10
-105.527211265
 20
-29.8399951665
 30
0.0
 11
-105.527211265
 21
-29.9539952096
 31
0.0
  0
LINE
  5
D0
330
1F
100
AcDbEntity
  8
0
  6
Continuous
 62
     7
370
    30
100
AcDbLine
 10
-105.4876093758
 20
-29.8399951665
 30
0.0
 11
-105.4876093758
 21
-29.9539952096
 31
0.0
  0
LINE
  5
D1
330
1F
100
AcDbEntity
  8
0
  6
Continuous
 62
     7
370
    30
100
AcDbLine
 10
-105.527211265
 20
-29.9539952096
 30
0.0
 11
-105.4876093758
 21
-29.9539952096
 31
0.0
  0
LINE
  5
D2
330
1F
100
AcDbEntity
  8
0
  6
Continuous
 62
     7
370
    30
100
AcDbLine
 10
-105.527211265
 20
-29.8399951665
 30
0.0
 11
-105.4876093758
 21
-29.8399951665
 31
0.0
  0
LINE
  5
D3
330
1F
100
AcDbEntity
  8
0
  6
Continuous
 62
     7
370
    30
100
AcDbLine
 10
-105.4876093758
 20
-29.9539952096
 30
0.0
 11
-105.390439725
 21
-29.9539952096
 31
0.0
  0
LINE
  5
D4
330
1F
100
AcDbEntity
  8
0
  6
Continuous
 62
     7
370
    30
100
AcDbLine
 10
-105.4876093758
 20
-29.8399951665
 30
0.0
 11
-105.390439725
 21
-29.8399951665
 31
0.0
  0
LINE
  5
D5
330
1F
100
AcDbEntity
  8
0
  6
Continuous
 62
     7
370
    30
100
AcDbLine
 10
-105.390439725
 20
-29.9539952096
 30
0.0
 11
-105.3350402583
 21
-29.9539952096
 31
0.0
  0
LINE
  5
D6
330
1F
100
AcDbEntity
  8
0
  6
Continuous
 62
     7
370
    30
100
AcDbLine
 10
-105.390439725
 20
-29.8399951665
 30
0.0
 11
-105.3350402583
 21
-29.8399951665
 31
0.0
  0
LINE
  5
D7
330
1F
100
AcDbEntity
  8
0
  6
Continuous
 62
     7
370
    30
100
AcDbLine
 10
-81.835040799
 20
-26.7754952662
 30
0.0
 11
-81.835040799
 21
-29.7649953929
 31
0.0
  0
LINE
  5
D8
330
1F
100
AcDbEntity
  8
0
  6
Continuous
 62
     7
370
    30
100
AcDbLine
 10
-80.3350453271
 20
-29.7649953929
 30
0.0
 11
-80.3350453271
 21
-26.7754952662
 31
0.0
  0
LINE
  5
D9
330
1F
100
AcDbEntity
  8
0
  6
Continuous
 62
     7
370
    30
100
AcDbLine
 10
-81.835040799
 20
-23.3479951226
 30
0.0
 11
-81.835040799
 21
-26.3384952661
 31
0.0
  0
LINE
  5
DA
330
1F
100
AcDbEntity
  8
0
  6
Continuous
 62
     7
370
    30
100
AcDbLine
 10
-80.3350453271
 20
-26.3384952661
 30
0.0
 11
-80.3350453271
 21
-23.3479951226
 31
0.0
  0
LINE
  5
DB
330
1F
100
AcDbEntity
  8
0
  6
Continuous
 62
     7
370
    30
100
AcDbLine
 10
-105.3350402583
 20
-26.7754952662
 30
0.0
 11
-105.3350402583
 21
-29.7649953929
 31
0.0
  0
LINE
  5
DC
330
1F
100
AcDbEntity
  8
0
  6
Continuous
 62
     7
370
    30
100
AcDbLine
 10
-103.8350447864
 20
-29.7649953929
 30
0.0
 11
-103.8350447864
 21
-26.7754952662
 31
0.0
  0
LINE
  5
DD
330
1F
100
AcDbEntity
  8
0
  6
Continuous
 62
     7
370
    30
100
AcDbLine
 10
-105.3350402583
 20
-23.3479951226
 30
0.0
 11
-105.3350402583
 21
-26.3384952661
 31
0.0
  0
LINE
  5
DE
330
1F
100
AcDbEntity
  8
0
  6
Continuous
 62
     7
370
    30
100
AcDbLine
 10
-103.8350447864
 20
-26.3384952661
 30
0.0
 11
-103.8350447864
 21
-23.3479951226
 31
0.0
  0
LINE
  5
DF
330
1F
100
AcDbEntity
  8
0
  6
Continuous
 62
     8
370
     0
100
AcDbLine
 10
-105.5850418503
 20
-26.353395254
 30
0.0
 11
-61.904146349
 21
-26.353395254
 31
0.0
  0
LINE
  5
E0
330
1F
100
AcDbEntity
  8
0
  6
Continuous
 62
     8
370
     0
100
AcDbLine
 10
-105.5850418503
 20
-26.76059526
 30
0.0
 11
-61.904146349
 21
-26.76059526
 31
0.0
  0
LINE
  5
E1
330
1F
100
AcDbEntity
  8
0
  6
Continuous
 62
     8
370
     0
100
AcDbLine
 10
-105.5850418503
 20
-25.6028952272
 30
0.0
 11
-105.3350402583
 21
-25.6028952272
 31
0.0
  0
LINE
  5
E2
330
1F
100
AcDbEntity
  8
0
  6
Continuous
 62
     8
370
     0
100
AcDbLine
 10
-103.8350447864
 20
-25.6028952272
 30
0.0
 11
-81.835040799
 21
-25.6028952272
 31
0.0
  0
LINE
  5
E3
330
1F
100
AcDbEntity
  8
0
  6
Continuous
 62
     8
370
     0
100
AcDbLine
 10
-80.3350453271
 20
-25.6028952272
 30
0.0
 11
-61.904146349
 21
-25.6028952272
 31
0.0
  0
LINE
  5
E4
330
1F
100
AcDbEntity
  8
0
  6
Continuous
 62
     8
370
     0
100
AcDbLine
 10
-105.5850418503
 20
-27.5100952884
 30
0.0
 11
-105.3350402583
 21
-27.5100952884
 31
0.0
  0
LINE
  5
E5
330
1F
100
AcDbEntity
  8
0
  6
Continuous
 62
     8
370
     0
100
AcDbLine
 10
-61.904146349
 20
-22.9889953498
 30
0.0
 11
-105.3350402583
 21
-22.9889953498
 31
0.0
  0
LINE
  5
E6
330
1F
100
AcDbEntity
  8
0
  6
Continuous
 62
     8
370
     0
100
AcDbLine
 10
-105.3350402583
 20
-23.3329954026
 30
0.0
 11
-61.904146349
 21
-23.3329954026
 31
0.0
  0
LINE
  5
E7
330
1F
100
AcDbEntity
  8
0
  6
Continuous
 62
     8
370
     0
100
AcDbLine
 10
-61.904146349
 20
-22.4879951374
 30
0.0
 11
-105.3350402583
 21
-22.4879951374
 31
0.0
  0
LINE
  5
E8
330
1F
100
AcDbEntity
  8
0
  6
Continuous
 62
     8
370
     0
100
AcDbLine
 10
-61.904146349
 20
-29.779995113
 30
0.0
 11
-105.3350402583
 21
-29.779995113
 31
0.0
  0
LINE
  5
E9
330
1F
100
AcDbEntity
  8
0
  6
Continuous
 62
     8
370
     0
100
AcDbLine
 10
-105.3350402583
 20
-30.1239951657
 30
0.0
 11
-61.904146349
 21
-30.1239951657
 31
0.0
  0
LINE
  5
EA
330
1F
100
AcDbEntity
  8
0
  6
Continuous
 62
     8
370
     0
100
AcDbLine
 10
-103.8350447864
 20
-29.760601897
 30
0.0
 11
-103.1826696027
 21
-29.760601897
 31
0.0
  0
LINE
  5
EB
330
1F
100
AcDbEntity
  8
0
  6
Continuous
 62
     8
370
     0
100
AcDbLine
 10
-103.0616627872
 20
-29.760601897
 30
0.0
 11
-81.835040799
 21
-29.760601897
 31
0.0
  0
LINE
  5
EC
330
1F
100
AcDbEntity
  8
0
  6
Continuous
 62
     8
370
     0
100
AcDbLine
 10
-80.3350453271
 20
-29.760601897
 30
0.0
 11
-61.904146349
 21
-29.760601897
 31
0.0
  0
LINE
  5
ED
330
1F
100
AcDbEntity
  8
0
  6
Continuous
 62
     8
370
     0
100
AcDbLine
 10
-61.904146349
 20
-29.6513887053
 30
0.0
 11
-80.3350453271
 21
-29.6513887053
 31
0.0
  0
LINE
  5
EE
330
1F
100
AcDbEntity
  8
0
  6
Continuous
 62
     8
370
     0
100
AcDbLine
 10
-81.835040799
 20
-29.6513887053
 30
0.0
 11
-103.0838338378
 21
-29.6513887053
 31
0.0
  0
LINE
  5
EF
330
1F
100
AcDbEntity
  8
0
  6
Continuous
 62
     8
370
     0
100
AcDbLine
 10
-103.1604985521
 20
-29.6513887053
 30
0.0
 11
-103.8350447864
 21
-29.6513887053
 31
0.0
  0
LINE
  5
F0
330
1F
100
AcDbEntity
  8
0
  6
Continuous
 62
     8
370
     0
100
AcDbLine
 10
-103.8350447864
 20
-29.6407821878
 30
0.0
 11
-103.1543738229
 21
-29.6407821878
 31
0.0
  0
LINE
  5
F1
330
1F
100
AcDbEntity
  8
0
  6
Continuous
 62
     8
370
     0
100
AcDbLine
 10
-103.089958567
 20
-29.6407821878
 30
0.0
 11
-81.835040799
 21
-29.6407821878
 31
0.0
  0
LINE
  5
F2
330
1F
100
AcDbEntity
  8
0
  6
Continuous
 62
     8
370
     0
100
AcDbLine
 10
-80.3350453271
 20
-29.6407821878
 30
0.0
 11
-61.904146349
 21
-29.6407821878
 31
0.0
  0
LINE
  5
F3
330
1F
100
AcDbEntity
  8
0
  6
Continuous
 62
     8
370
     0
100
AcDbLine
 10
-61.904146349
 20
-29.0299953237
 30
0.0
 11
-80.3350453271
 21
-29.0299953237
 31
0.0
  0
LINE
  5
F4
330
1F
100
AcDbEntity
  8
0
  6
Continuous
 62
     8
370
     0
100
AcDbLine
 10
-81.835040799
 20
-29.0299953237
 30
0.0
 11
-103.8350447864
 21
-29.0299953237
 31
0.0
  0
LINE
  5
F5
330
1F
100
AcDbEntity
  8
0
  6
Continuous
 62
     8
370
     0
100
AcDbLine
 10
-105.3350402583
 20
-30.6249953781
 30
0.0
 11
-61.904146349
 21
-30.6249953781
 31
0.0
  0
LINE
  5
F6
330
1F
100
AcDbEntity
  8
0
  6
Continuous
 62
     8
370
     0
100
AcDbLine
 10
-105.390439725
 20
-23.158995306
 30
0.0
 11
-105.390439725
 21
-23.272995349
 31
0.0
  0
LINE
  5
F7
330
1F
100
AcDbEntity
  8
0
  6
Continuous
 62
     8
370
     0
100
AcDbLine
 10
-105.390439725
 20
-29.8399951665
 30
0.0
 11
-105.390439725
 21
-29.9539952096
 31
0.0
  0
LINE
  5
F8
330
1F
100
AcDbEntity
  8
0
  6
PHANTOM
 62
     7
370
    30
100
AcDbLine
 10
-67.6957532941
 20
-21.9980800654
 30
0.0
 11
-67.6957532941
 21
-31.3854370925
 31
0.0
  0
LINE
  5
F9
330
1F
100
AcDbEntity
  8
0
  6
Continuous
 62
     7
370
    30
100
AcDbLine
 10
-67.6957532941
 20
-21.9980800654
 30
0.0
 11
-68.1957532941
 21
-21.9980800654
 31
0.0
  0
SOLID
  5
FA
330
1F
100
AcDbEntity
  8
0
  6
Continuous
 62
     7
370
    30
100
AcDbTrace
 10
-68.1957532941
 20
-21.9980800654
 30
0.0
 11
-68.0082532941
 21
-22.0293300654
 31
0.0
 12
-68.0082532941
 22
-21.9668300654
 32
0.0
 13
-68.0082532941
 23
-21.9668300654
 33
0.0
  0
LINE
  5
FB
330
1F
100
AcDbEntity
  8
0
  6
Continuous
 62
     7
370
    30
100
AcDbLine
 10
-67.6957532941
 20
-31.3854370925
 30
0.0
 11
-68.1957532941
 21
-31.3854370925
 31
0.0
  0
SOLID
  5
FC
330
1F
100
AcDbEntity
  8
0
  6
Continuous
 62
     7
370
    30
100
AcDbTrace
 10
-68.1957532941
 20
-31.3854370925
 30
0.0
 11
-68.0082532941
 21
-31.4166870925
 31
0.0
 12
-68.0082532941
 22
-31.3541870925
 32
0.0
 13
-68.0082532941
 23
-31.3541870925
 33
0.0
  0
MTEXT
  5
FD
330
1F
100
AcDbEntity
  8
0
  6
Continuous
 62
     7
100
AcDbMText
 10
-68.344348221
 20
-21.9050099332
 30
0.0
 40
0.1213378906
 41
0.0
 71
     1
 72
     1
  1
A
  7
SLDTEXTSTYLE0
 73
     1
 44
1.0
  0
MTEXT
  5
FE
330
1F
100
AcDbEntity
  8
0
  6
Continuous
 62
     7
100
AcDbMText
 10
-68.344348221
 20
-31.2923669603
 30
0.0
 40
0.1213378906
 41
0.0
 71
     1
 72
     1
  1
A
  7
SLDTEXTSTYLE0
 73
     1
 44
1.0
  0
LINE
  5
FF
330
1F
100
AcDbEntity
  8
0
  6
HIDDEN
 62
     7
370
     0
100
AcDbLine
 10
-61.9041459059
 20
-22.347995124
 30
0.0
 11
-61.9041459059
 21
-26.517125179
 31
0.0
  0
LINE
  5
100
330
1F
100
AcDbEntity
  8
0
  6
HIDDEN
 62
     7
370
     0
100
AcDbLine
 10
-61.9041459059
 20
-26.517125179
 30
0.0
 11
-61.8254057484
 21
-26.4777551003
 31
0.0
  0
LINE
  5
101
330
1F
100
AcDbEntity
  8
0
  6
HIDDEN
 62
     7
370
     0
100
AcDbLine
 10
-61.8254057484
 20
-26.4777551003
 30
0.0
 11
-61.9041459059
 21
-26.5564952578
 31
0.0
  0
LINE
  5
102
330
1F
100
AcDbEntity
  8
0
  6
HIDDEN
 62
     7
370
     0
100
AcDbLine
 10
-61.9041459059
 20
-26.5564952578
 30
0.0
 11
-61.9828860633
 21
-26.6352354152
 31
0.0
  0
LINE
  5
103
330
1F
100
AcDbEntity
  8
0
  6
HIDDEN
 62
     7
370
     0
100
AcDbLine
 10
-61.9828860633
 20
-26.6352354152
 30
0.0
 11
-61.9041459059
 21
-26.5958653365
 31
0.0
  0
LINE
  5
104
330
1F
100
AcDbEntity
  8
0
  6
HIDDEN
 62
     7
370
     0
100
AcDbLine
 10
-61.9041459059
 20
-26.5958653365
 30
0.0
 11
-61.9041459059
 21
-30.7649953915
 31
0.0
  0
LINE
  5
105
330
1F
100
AcDbEntity
  8
0
  6
HIDDEN
 62
     7
370
     0
100
AcDbLine
 10
-61.6541459059
 20
-22.347995124
 30
0.0
 11
-61.6541459059
 21
-26.517125179
 31
0.0
  0
LINE
  5
106
330
1F
100
AcDbEntity
  8
0
  6
HIDDEN
 62
     7
370
     0
100
AcDbLine
 10
-61.6541459059
 20
-26.517125179
 30
0.0
 11
-61.5754057484
 21
-26.4777551003
 31
0.0
  0
LINE
  5
107
330
1F
100
AcDbEntity
  8
0
  6
HIDDEN
 62
     7
370
     0
100
AcDbLine
 10
-61.5754057484
 20
-26.4777551003
 30
0.0
 11
-61.6541459059
 21
-26.5564952578
 31
0.0
  0
LINE
  5
108
330
1F
100
AcDbEntity
  8
0
  6
HIDDEN
 62
     7
370
     0
100
AcDbLine
 10
-61.6541459059
 20
-26.5564952578
 30
0.0
 11
-61.7328860633
 21
-26.6352354152
 31
0.0
  0
LINE
  5
109
330
1F
100
AcDbEntity
  8
0
  6
HIDDEN
 62
     7
370
     0
100
AcDbLine
 10
-61.7328860633
 20
-26.6352354152
 30
0.0
 11
-61.6541459059
 21
-26.5958653365
 31
0.0
  0
LINE
  5
10A
330
1F
100
AcDbEntity
  8
0
  6
HIDDEN
 62
     7
370
     0
100
AcDbLine
 10
-61.6541459059
 20
-26.5958653365
 30
0.0
 11
-61.6541459059
 21
-30.7649953915
 31
0.0
  0
LINE
  5
10B
330
1F
100
AcDbEntity
  8
0
  6
Continuous
 62
     7
370
    30
100
AcDbLine
 10
1.2543771913
 20
-30.0749952784
 30
0.0
 11
1.2543771913
 21
-30.0919952154
 31
0.0
  0
LINE
  5
10C
330
1F
100
AcDbEntity
  8
0
  6
Continuous
 62
     7
370
    30
100
AcDbLine
 10
1.5793772369
 20
-30.0919952154
 30
0.0
 11
1.5793772369
 21
-30.0749952784
 31
0.0
  0
LINE
  5
10D
330
1F
100
AcDbEntity
  8
0
  6
Continuous
 62
     7
370
    30
100
AcDbLine
 10
1.3539194414
 20
-30.0139952631
 30
0.0
 11
1.3668772184
 21
-30.02147635
 31
0.0
  0
LINE
  5
10E
330
1F
100
AcDbEntity
  8
0
  6
Continuous
 62
     7
370
    30
100
AcDbLine
 10
1.4668772098
 20
-30.02147635
 30
0.0
 11
1.4798349868
 21
-30.0139952631
 31
0.0
  0
LINE
  5
10F
330
1F
100
AcDbEntity
  8
0
  6
Continuous
 62
     7
370
    30
100
AcDbLine
 10
1.485877217
 20
-30.0705067436
 30
0.0
 11
1.4668772098
 21
-30.0595370837
 31
0.0
  0
LINE
  5
110
330
1F
100
AcDbEntity
  8
0
  6
Continuous
 62
     7
370
    30
100
AcDbLine
 10
1.3668772184
 20
-30.0595370837
 30
0.0
 11
1.3478772112
 21
-30.0705067436
 31
0.0
  0
LINE
  5
111
330
1F
100
AcDbEntity
  8
0
  6
Continuous
 62
     7
370
    30
100
AcDbLine
 10
1.3478772112
 20
-30.0705067436
 30
0.0
 11
1.3478772112
 21
-30.0749952784
 31
0.0
  0
LINE
  5
112
330
1F
100
AcDbEntity
  8
0
  6
Continuous
 62
     7
370
    30
100
AcDbLine
 10
1.485877217
 20
-30.0749952784
 30
0.0
 11
1.485877217
 21
-30.0705067436
 31
0.0
  0
LINE
  5
113
330
1F
100
AcDbEntity
  8
0
  6
Continuous
 62
     7
370
    30
100
AcDbLine
 10
1.485877217
 20
-29.7665066288
 30
0.0
 11
1.485877217
 21
-29.765506667
 31
0.0
  0
LINE
  5
114
330
1F
100
AcDbEntity
  8
0
  6
Continuous
 62
     7
370
    30
100
AcDbLine
 10
1.4668772098
 20
-29.7774762887
 30
0.0
 11
1.485877217
 21
-29.7665066288
 31
0.0
  0
LINE
  5
115
330
1F
100
AcDbEntity
  8
0
  6
Continuous
 62
     7
370
    30
100
AcDbLine
 10
1.485877217
 20
-29.765506667
 30
0.0
 11
1.4668772098
 21
-29.7545370071
 31
0.0
  0
LINE
  5
116
330
1F
100
AcDbEntity
  8
0
  6
Continuous
 62
     7
370
    30
100
AcDbLine
 10
1.3668772184
 20
-29.7545370071
 30
0.0
 11
1.348763141
 21
-29.7649953929
 31
0.0
  0
LINE
  5
117
330
1F
100
AcDbEntity
  8
0
  6
Continuous
 62
     7
370
    30
100
AcDbLine
 10
1.3478772112
 20
-29.82699537
 30
0.0
 11
1.3478772112
 21
-29.8275066441
 31
0.0
  0
LINE
  5
118
330
1F
100
AcDbEntity
  8
0
  6
Continuous
 62
     7
370
    30
100
AcDbLine
 10
1.485877217
 20
-29.8275066441
 30
0.0
 11
1.485877217
 21
-29.8265066823
 31
0.0
  0
LINE
  5
119
330
1F
100
AcDbEntity
  8
0
  6
Continuous
 62
     7
370
    30
100
AcDbLine
 10
1.485877217
 20
-29.8265066823
 30
0.0
 11
1.4668772098
 21
-29.8155370224
 31
0.0
  0
LINE
  5
11A
330
1F
100
AcDbEntity
  8
0
  6
Continuous
 62
     7
370
    30
100
AcDbLine
 10
1.3478772112
 20
-29.8275066441
 30
0.0
 11
1.3668772184
 21
-29.838476304
 31
0.0
  0
LINE
  5
11B
330
1F
100
AcDbEntity
  8
0
  6
Continuous
 62
     7
370
    30
100
AcDbLine
 10
1.4668772098
 20
-29.838476304
 30
0.0
 11
1.485877217
 21
-29.8275066441
 31
0.0
  0
LINE
  5
11C
330
1F
100
AcDbEntity
  8
0
  6
Continuous
 62
     7
370
    30
100
AcDbLine
 10
1.3478772112
 20
-29.7045066517
 30
0.0
 11
1.3478772112
 21
-29.7055069068
 31
0.0
  0
LINE
  5
11D
330
1F
100
AcDbEntity
  8
0
  6
Continuous
 62
     7
370
    30
100
AcDbLine
 10
1.485877217
 20
-29.7055069068
 30
0.0
 11
1.485877217
 21
-29.7045066517
 31
0.0
  0
LINE
  5
11E
330
1F
100
AcDbEntity
  8
0
  6
Continuous
 62
     7
370
    30
100
AcDbLine
 10
1.3478772112
 20
-29.7055069068
 30
0.0
 11
1.3668772184
 21
-29.7164762734
 31
0.0
  0
LINE
  5
11F
330
1F
100
AcDbEntity
  8
0
  6
Continuous
 62
     7
370
    30
100
AcDbLine
 10
1.4668772098
 20
-29.7164762734
 30
0.0
 11
1.485877217
 21
-29.7055069068
 31
0.0
  0
LINE
  5
120
330
1F
100
AcDbEntity
  8
0
  6
Continuous
 62
     7
370
    30
100
AcDbLine
 10
1.485877217
 20
-29.7045066517
 30
0.0
 11
1.4668772098
 21
-29.6935369917
 31
0.0
  0
LINE
  5
121
330
1F
100
AcDbEntity
  8
0
  6
Continuous
 62
     7
370
    30
100
AcDbLine
 10
1.3668772184
 20
-29.6935369917
 30
0.0
 11
1.3478772112
 21
-29.7045066517
 31
0.0
  0
LINE
  5
122
330
1F
100
AcDbEntity
  8
0
  6
Continuous
 62
     7
370
    30
100
AcDbLine
 10
1.4668772098
 20
-30.0595370837
 30
0.0
 11
1.4668772098
 21
-30.02147635
 31
0.0
  0
LINE
  5
123
330
1F
100
AcDbEntity
  8
0
  6
Continuous
 62
     7
370
    30
100
AcDbLine
 10
1.3668772184
 20
-30.02147635
 30
0.0
 11
1.3668772184
 21
-30.0595370837
 31
0.0
  0
LINE
  5
124
330
1F
100
AcDbEntity
  8
0
  6
Continuous
 62
     7
370
    30
100
AcDbLine
 10
1.4668772098
 20
-29.8155370224
 30
0.0
 11
1.4668772098
 21
-29.7774762887
 31
0.0
  0
LINE
  5
125
330
1F
100
AcDbEntity
  8
0
  6
Continuous
 62
     7
370
    30
100
AcDbLine
 10
1.4668772098
 20
-29.7545370071
 30
0.0
 11
1.4668772098
 21
-29.7164762734
 31
0.0
  0
LINE
  5
126
330
1F
100
AcDbEntity
  8
0
  6
Continuous
 62
     7
370
    30
100
AcDbLine
 10
1.3668772184
 20
-29.7164762734
 30
0.0
 11
1.3668772184
 21
-29.7545370071
 31
0.0
  0
LINE
  5
127
330
1F
100
AcDbEntity
  8
0
  6
Continuous
 62
     7
370
    30
100
AcDbLine
 10
1.4668772098
 20
-29.6935369917
 30
0.0
 11
1.4668772098
 21
-29.6715976718
 31
0.0
  0
LINE
  5
128
330
1F
100
AcDbEntity
  8
0
  6
Continuous
 62
     7
370
    30
100
AcDbLine
 10
1.3668772184
 20
-29.6715976718
 30
0.0
 11
1.3668772184
 21
-29.6935369917
 31
0.0
  0
LINE
  5
129
330
1F
100
AcDbEntity
  8
0
  6
Continuous
 62
     7
370
    30
100
AcDbLine
 10
1.4668772098
 20
-29.8399951665
 30
0.0
 11
1.4668772098
 21
-29.838476304
 31
0.0
  0
LINE
  5
12A
330
1F
100
AcDbEntity
  8
0
  6
Continuous
 62
     7
370
    30
100
AcDbLine
 10
1.3668772184
 20
-29.838476304
 30
0.0
 11
1.3668772184
 21
-29.8399951665
 31
0.0
  0
LINE
  5
12B
330
1F
100
AcDbEntity
  8
0
  6
Continuous
 62
     7
370
    30
100
AcDbLine
 10
1.4668772098
 20
-29.6715976718
 30
0.0
 11
1.4168772141
 21
-29.5849952323
 31
0.0
  0
LINE
  5
12C
330
1F
100
AcDbEntity
  8
0
  6
Continuous
 62
     7
370
    30
100
AcDbLine
 10
1.4168772141
 20
-29.5849952323
 30
0.0
 11
1.3668772184
 21
-29.6715976718
 31
0.0
  0
LINE
  5
12D
330
1F
100
AcDbEntity
  8
0
  6
Continuous
 62
     7
370
    30
100
AcDbLine
 10
1.5793772369
 20
-23.0379952371
 30
0.0
 11
1.5793772369
 21
-23.0209953002
 31
0.0
  0
LINE
  5
12E
330
1F
100
AcDbEntity
  8
0
  6
Continuous
 62
     7
370
    30
100
AcDbLine
 10
1.2543771913
 20
-23.0209953002
 30
0.0
 11
1.2543771913
 21
-23.0379952371
 31
0.0
  0
LINE
  5
12F
330
1F
100
AcDbEntity
  8
0
  6
Continuous
 62
     7
370
    30
100
AcDbLine
 10
1.485877217
 20
-23.4084838639
 30
0.0
 11
1.485877217
 21
-23.4074836088
 31
0.0
  0
LINE
  5
130
330
1F
100
AcDbEntity
  8
0
  6
Continuous
 62
     7
370
    30
100
AcDbLine
 10
1.3478772112
 20
-23.4074836088
 30
0.0
 11
1.3478772112
 21
-23.4084838639
 31
0.0
  0
LINE
  5
131
330
1F
100
AcDbEntity
  8
0
  6
Continuous
 62
     7
370
    30
100
AcDbLine
 10
1.485877217
 20
-23.4074836088
 30
0.0
 11
1.4668772098
 21
-23.3965142421
 31
0.0
  0
LINE
  5
132
330
1F
100
AcDbEntity
  8
0
  6
Continuous
 62
     7
370
    30
100
AcDbLine
 10
1.3668772184
 20
-23.3965142421
 30
0.0
 11
1.3478772112
 21
-23.4074836088
 31
0.0
  0
LINE
  5
133
330
1F
100
AcDbEntity
  8
0
  6
Continuous
 62
     7
370
    30
100
AcDbLine
 10
1.3478772112
 20
-23.4084838639
 30
0.0
 11
1.3668772184
 21
-23.4194535238
 31
0.0
  0
LINE
  5
134
330
1F
100
AcDbEntity
  8
0
  6
Continuous
 62
     7
370
    30
100
AcDbLine
 10
1.4668772098
 20
-23.4194535238
 30
0.0
 11
1.485877217
 21
-23.4084838639
 31
0.0
  0
LINE
  5
135
330
1F
100
AcDbEntity
  8
0
  6
Continuous
 62
     7
370
    30
100
AcDbLine
 10
1.485877217
 20
-23.0424837719
 30
0.0
 11
1.485877217
 21
-23.0379952371
 31
0.0
  0
LINE
  5
136
330
1F
100
AcDbEntity
  8
0
  6
Continuous
 62
     7
370
    30
100
AcDbLine
 10
1.3478772112
 20
-23.0379952371
 30
0.0
 11
1.3478772112
 21
-23.0424837719
 31
0.0
  0
LINE
  5
137
330
1F
100
AcDbEntity
  8
0
  6
Continuous
 62
     7
370
    30
100
AcDbLine
 10
1.485877217
 20
-23.2864838332
 30
0.0
 11
1.485877217
 21
-23.2854838714
 31
0.0
  0
LINE
  5
138
330
1F
100
AcDbEntity
  8
0
  6
Continuous
 62
     7
370
    30
100
AcDbLine
 10
1.3478772112
 20
-23.2854838714
 30
0.0
 11
1.3478772112
 21
-23.2859951455
 31
0.0
  0
LINE
  5
139
330
1F
100
AcDbEntity
  8
0
  6
Continuous
 62
     7
370
    30
100
AcDbLine
 10
1.485877217
 20
-23.3474838485
 30
0.0
 11
1.485877217
 21
-23.3464838868
 31
0.0
  0
LINE
  5
13A
330
1F
100
AcDbEntity
  8
0
  6
Continuous
 62
     7
370
    30
100
AcDbLine
 10
1.4668772098
 20
-23.2974534932
 30
0.0
 11
1.485877217
 21
-23.2864838332
 31
0.0
  0
LINE
  5
13B
330
1F
100
AcDbEntity
  8
0
  6
Continuous
 62
     7
370
    30
100
AcDbLine
 10
1.348763141
 20
-23.3479951226
 30
0.0
 11
1.3668772184
 21
-23.3584535085
 31
0.0
  0
LINE
  5
13C
330
1F
100
AcDbEntity
  8
0
  6
Continuous
 62
     7
370
    30
100
AcDbLine
 10
1.4668772098
 20
-23.3584535085
 30
0.0
 11
1.485877217
 21
-23.3474838485
 31
0.0
  0
LINE
  5
13D
330
1F
100
AcDbEntity
  8
0
  6
Continuous
 62
     7
370
    30
100
AcDbLine
 10
1.3478772112
 20
-23.0424837719
 30
0.0
 11
1.3668772184
 21
-23.0534534319
 31
0.0
  0
LINE
  5
13E
330
1F
100
AcDbEntity
  8
0
  6
Continuous
 62
     7
370
    30
100
AcDbLine
 10
1.4668772098
 20
-23.0534534319
 30
0.0
 11
1.485877217
 21
-23.0424837719
 31
0.0
  0
LINE
  5
13F
330
1F
100
AcDbEntity
  8
0
  6
Continuous
 62
     7
370
    30
100
AcDbLine
 10
1.485877217
 20
-23.2854838714
 30
0.0
 11
1.4668772098
 21
-23.2745142115
 31
0.0
  0
LINE
  5
140
330
1F
100
AcDbEntity
  8
0
  6
Continuous
 62
     7
370
    30
100
AcDbLine
 10
1.3668772184
 20
-23.2745142115
 30
0.0
 11
1.3478772112
 21
-23.2854838714
 31
0.0
  0
LINE
  5
141
330
1F
100
AcDbEntity
  8
0
  6
Continuous
 62
     7
370
    30
100
AcDbLine
 10
1.485877217
 20
-23.3464838868
 30
0.0
 11
1.4668772098
 21
-23.3355142268
 31
0.0
  0
LINE
  5
142
330
1F
100
AcDbEntity
  8
0
  6
Continuous
 62
     7
370
    30
100
AcDbLine
 10
1.4798349868
 20
-23.0989952524
 30
0.0
 11
1.4668772098
 21
-23.0915141655
 31
0.0
  0
LINE
  5
143
330
1F
100
AcDbEntity
  8
0
  6
Continuous
 62
     7
370
    30
100
AcDbLine
 10
1.3668772184
 20
-23.0915141655
 30
0.0
 11
1.3539194414
 21
-23.0989952524
 31
0.0
  0
LINE
  5
144
330
1F
100
AcDbEntity
  8
0
  6
Continuous
 62
     7
370
    30
100
AcDbLine
 10
1.3668772184
 20
-23.4194535238
 30
0.0
 11
1.3668772184
 21
-23.4413928437
 31
0.0
  0
LINE
  5
145
330
1F
100
AcDbEntity
  8
0
  6
Continuous
 62
     7
370
    30
100
AcDbLine
 10
1.4668772098
 20
-23.4413928437
 30
0.0
 11
1.4668772098
 21
-23.4194535238
 31
0.0
  0
LINE
  5
146
330
1F
100
AcDbEntity
  8
0
  6
Continuous
 62
     7
370
    30
100
AcDbLine
 10
1.3668772184
 20
-23.272995349
 30
0.0
 11
1.3668772184
 21
-23.2745142115
 31
0.0
  0
LINE
  5
147
330
1F
100
AcDbEntity
  8
0
  6
Continuous
 62
     7
370
    30
100
AcDbLine
 10
1.4668772098
 20
-23.2745142115
 30
0.0
 11
1.4668772098
 21
-23.272995349
 31
0.0
  0
LINE
  5
148
330
1F
100
AcDbEntity
  8
0
  6
Continuous
 62
     7
370
    30
100
AcDbLine
 10
1.3668772184
 20
-23.0534534319
 30
0.0
 11
1.3668772184
 21
-23.0915141655
 31
0.0
  0
LINE
  5
149
330
1F
100
AcDbEntity
  8
0
  6
Continuous
 62
     7
370
    30
100
AcDbLine
 10
1.4668772098
 20
-23.0915141655
 30
0.0
 11
1.4668772098
 21
-23.0534534319
 31
0.0
  0
LINE
  5
14A
330
1F
100
AcDbEntity
  8
0
  6
Continuous
 62
     7
370
    30
100
AcDbLine
 10
1.3668772184
 20
-23.3584535085
 30
0.0
 11
1.3668772184
 21
-23.3965142421
 31
0.0
  0
LINE
  5
14B
330
1F
100
AcDbEntity
  8
0
  6
Continuous
 62
     7
370
    30
100
AcDbLine
 10
1.4668772098
 20
-23.3965142421
 30
0.0
 11
1.4668772098
 21
-23.3584535085
 31
0.0
  0
LINE
  5
14C
330
1F
100
AcDbEntity
  8
0
  6
Continuous
 62
     7
370
    30
100
AcDbLine
 10
1.3668772184
 20
-23.4413928437
 30
0.0
 11
1.4168772141
 21
-23.5279952833
 31
0.0
  0
LINE
  5
14D
330
1F
100
AcDbEntity
  8
0
  6
Continuous
 62
     7
370
    30
100
AcDbLine
 10
1.4168772141
 20
-23.5279952833
 30
0.0
 11
1.4668772098
 21
-23.4413928437
 31
0.0
  0
LINE
  5
14E
330
1F
100
AcDbEntity
  8
0
  6
Continuous
 62
     7
370
    30
100
AcDbLine
 10
1.4668772098
 20
-23.3355142268
 30
0.0
 11
1.4668772098
 21
-23.2974534932
 31
0.0
  0
LINE
  5
14F
330
1F
100
AcDbEntity
  8
0
  6
Continuous
 62
     7
370
    30
100
AcDbLine
 10
1.1241102428
 20
-26.5874952578
 30
0.0
 11
2.4063101959
 21
-26.5874952578
 31
0.0
  0
ARC
  5
150
330
1F
100
AcDbEntity
  8
0
  6
Continuous
 62
     7
370
    30
100
AcDbCircle
 10
1.1241101959
 20
-26.6023952578
 30
0.0
 40
0.0149000000000079
100
AcDbArc
 50
90.0
 51
180.0
  0
LINE
  5
151
330
1F
100
AcDbEntity
  8
0
  6
Continuous
 62
     7
370
    30
100
AcDbLine
 10
1.109210255
 20
-26.6975952569
 30
0.0
 11
1.109210255
 21
-26.6023952571
 31
0.0
  0
ARC
  5
152
330
1F
100
AcDbEntity
  8
0
  6
Continuous
 62
     7
370
    30
100
AcDbCircle
 10
1.1241101959
 20
-26.6975952578
 30
0.0
 40
0.0148999999999992
100
AcDbArc
 50
180.0
 51
270.0
  0
LINE
  5
153
330
1F
100
AcDbEntity
  8
0
  6
Continuous
 62
     7
370
    30
100
AcDbLine
 10
1.4073101846
 20
-26.712495254
 30
0.0
 11
1.1241102428
 21
-26.712495254
 31
0.0
  0
ARC
  5
154
330
1F
100
AcDbEntity
  8
0
  6
Continuous
 62
     7
370
    30
100
AcDbCircle
 10
1.4073101959
 20
-26.7273952578
 30
0.0
 40
0.0149000000000008
100
AcDbArc
 50
0.0
 51
90.0
  0
LINE
  5
155
330
1F
100
AcDbEntity
  8
0
  6
Continuous
 62
     7
370
    30
100
AcDbLine
 10
1.4222101725
 20
-26.76059526
 30
0.0
 11
1.4222101725
 21
-26.7273952602
 31
0.0
  0
ARC
  5
156
330
1F
100
AcDbEntity
  8
0
  6
Continuous
 62
     7
370
    30
100
AcDbCircle
 10
1.4073101959
 20
-26.7605952578
 30
0.0
 40
0.0148999999999984
100
AcDbArc
 50
270.0
 51
0.0
  0
LINE
  5
157
330
1F
100
AcDbEntity
  8
0
  6
Continuous
 62
     7
370
    30
100
AcDbLine
 10
1.0621102657
 20
-26.7754952662
 30
0.0
 11
1.4073101846
 21
-26.7754952662
 31
0.0
  0
ARC
  5
158
330
1F
100
AcDbEntity
  8
0
  6
Continuous
 62
     7
370
    30
100
AcDbCircle
 10
1.0621101959
 20
-26.7605952578
 30
0.0
 40
0.0148999999999988
100
AcDbArc
 50
180.0
 51
270.0
  0
LINE
  5
159
330
1F
100
AcDbEntity
  8
0
  6
Continuous
 62
     7
370
    30
100
AcDbLine
 10
1.0472101312
 20
-26.6023952571
 30
0.0
 11
1.0472101312
 21
-26.76059526
 31
0.0
  0
ARC
  5
15A
330
1F
100
AcDbEntity
  8
0
  6
Continuous
 62
     7
370
    30
100
AcDbCircle
 10
1.0323101959
 20
-26.6023952578
 30
0.0
 40
0.0149000000000008
100
AcDbArc
 50
0.0
 51
90.0
  0
LINE
  5
15B
330
1F
100
AcDbEntity
  8
0
  6
Continuous
 62
     7
370
    30
100
AcDbLine
 10
0.9623820445
 20
-26.5874952578
 30
0.0
 11
1.0323101433
 21
-26.5874952578
 31
0.0
  0
ARC
  5
15C
330
1F
100
AcDbEntity
  8
0
  6
Continuous
 62
     7
370
    30
100
AcDbCircle
 10
0.962381978
 20
-26.6023952578
 30
0.0
 40
0.0148999999999972
100
AcDbArc
 50
90.0
 51
135.0
  0
LINE
  5
15D
330
1F
100
AcDbEntity
  8
0
  6
Continuous
 62
     7
370
    30
100
AcDbLine
 10
0.8665743246
 20
-26.6771311483
 30
0.0
 11
0.9518460729
 21
-26.5918593657
 31
0.0
  0
ARC
  5
15E
330
1F
100
AcDbEntity
  8
0
  6
Continuous
 62
     7
370
    30
100
AcDbCircle
 10
0.8771101959
 20
-26.6876670398
 30
0.0
 40
0.0148999999999999
100
AcDbArc
 50
135.0
 51
180.0
  0
LINE
  5
15F
330
1F
100
AcDbEntity
  8
0
  6
Continuous
 62
     7
370
    30
100
AcDbLine
 10
0.8622101617
 20
-27.5100952884
 30
0.0
 11
0.8622101617
 21
-26.6876670375
 31
0.0
  0
ARC
  5
160
330
1F
100
AcDbEntity
  8
0
  6
Continuous
 62
     7
370
    30
100
AcDbCircle
 10
0.8473101959
 20
-27.5100952578
 30
0.0
 40
0.014899999999999
100
AcDbArc
 50
270.0
 51
0.0
  0
LINE
  5
161
330
1F
100
AcDbEntity
  8
0
  6
Continuous
 62
     7
370
    30
100
AcDbLine
 10
0.8151101724
 20
-27.5249952762
 30
0.0
 11
0.8473101738
 21
-27.5249952762
 31
0.0
  0
LINE
  5
162
330
1F
100
AcDbEntity
  8
0
  6
Continuous
 62
     7
370
    30
100
AcDbLine
 10
0.8889930923
 20
-26.5670311492
 30
0.0
 11
0.8045743475
 21
-26.65144991
 31
0.0
  0
ARC
  5
163
330
1F
100
AcDbEntity
  8
0
  6
Continuous
 62
     7
370
    30
100
AcDbCircle
 10
0.8784571729
 20
-26.5564952578
 30
0.0
 40
0.0149
100
AcDbArc
 50
315.0
 51
45.0
  0
LINE
  5
164
330
1F
100
AcDbEntity
  8
0
  6
Continuous
 62
     7
370
    30
100
AcDbLine
 10
0.8045743475
 20
-26.4615406055
 30
0.0
 11
0.8889930923
 21
-26.5459593664
 31
0.0
  0
LINE
  5
165
330
1F
100
AcDbEntity
  8
0
  6
Continuous
 62
     7
370
    30
100
AcDbLine
 10
0.8473101738
 20
-25.5879952393
 30
0.0
 11
0.8151101724
 21
-25.5879952393
 31
0.0
  0
ARC
  5
166
330
1F
100
AcDbEntity
  8
0
  6
Continuous
 62
     7
370
    30
100
AcDbCircle
 10
0.8473101959
 20
-25.6028952578
 30
0.0
 40
0.0149000000000008
100
AcDbArc
 50
0.0
 51
90.0
  0
LINE
  5
167
330
1F
100
AcDbEntity
  8
0
  6
Continuous
 62
     7
370
    30
100
AcDbLine
 10
0.8622101617
 20
-26.4253234781
 30
0.0
 11
0.8622101617
 21
-25.6028952272
 31
0.0
  0
ARC
  5
168
330
1F
100
AcDbEntity
  8
0
  6
Continuous
 62
     7
370
    30
100
AcDbCircle
 10
0.8771101959
 20
-26.4253234757
 30
0.0
 40
0.014899999999999
100
AcDbArc
 50
180.0
 51
225.0
  0
LINE
  5
169
330
1F
100
AcDbEntity
  8
0
  6
Continuous
 62
     7
370
    30
100
AcDbLine
 10
0.9518460729
 20
-26.5211311498
 30
0.0
 11
0.8665743246
 21
-26.4358593672
 31
0.0
  0
ARC
  5
16A
330
1F
100
AcDbEntity
  8
0
  6
Continuous
 62
     7
370
    30
100
AcDbCircle
 10
0.962381978
 20
-26.5105952578
 30
0.0
 40
0.0149
100
AcDbArc
 50
225.0
 51
270.0
  0
LINE
  5
16B
330
1F
100
AcDbEntity
  8
0
  6
Continuous
 62
     7
370
    30
100
AcDbLine
 10
1.0323101433
 20
-26.5254952578
 30
0.0
 11
0.9623820445
 21
-26.5254952578
 31
0.0
  0
ARC
  5
16C
330
1F
100
AcDbEntity
  8
0
  6
Continuous
 62
     7
370
    30
100
AcDbCircle
 10
1.0323101959
 20
-26.5105952578
 30
0.0
 40
0.0148999999999988
100
AcDbArc
 50
270.0
 51
0.0
  0
LINE
  5
16D
330
1F
100
AcDbEntity
  8
0
  6
Continuous
 62
     7
370
    30
100
AcDbLine
 10
1.0472101312
 20
-26.353395254
 30
0.0
 11
1.0472101312
 21
-26.5105952584
 31
0.0
  0
ARC
  5
16E
330
1F
100
AcDbEntity
  8
0
  6
Continuous
 62
     7
370
    30
100
AcDbCircle
 10
1.0621101959
 20
-26.3533952578
 30
0.0
 40
0.014899999999999
100
AcDbArc
 50
90.0
 51
180.0
  0
LINE
  5
16F
330
1F
100
AcDbEntity
  8
0
  6
Continuous
 62
     7
370
    30
100
AcDbLine
 10
1.4073101846
 20
-26.3384952661
 30
0.0
 11
1.0621102657
 21
-26.3384952661
 31
0.0
  0
ARC
  5
170
330
1F
100
AcDbEntity
  8
0
  6
Continuous
 62
     7
370
    30
100
AcDbCircle
 10
1.4073101959
 20
-26.3533952578
 30
0.0
 40
0.0148999999999988
100
AcDbArc
 50
0.0
 51
90.0
  0
LINE
  5
171
330
1F
100
AcDbEntity
  8
0
  6
Continuous
 62
     7
370
    30
100
AcDbLine
 10
1.4222101725
 20
-26.3855952554
 30
0.0
 11
1.4222101725
 21
-26.353395254
 31
0.0
  0
ARC
  5
172
330
1F
100
AcDbEntity
  8
0
  6
Continuous
 62
     7
370
    30
100
AcDbCircle
 10
1.4073101959
 20
-26.3855952578
 30
0.0
 40
0.014899999999999
100
AcDbArc
 50
270.0
 51
0.0
  0
LINE
  5
173
330
1F
100
AcDbEntity
  8
0
  6
Continuous
 62
     7
370
    30
100
AcDbLine
 10
1.1241102428
 20
-26.4004952616
 30
0.0
 11
1.4073101846
 21
-26.4004952616
 31
0.0
  0
ARC
  5
174
330
1F
100
AcDbEntity
  8
0
  6
Continuous
 62
     7
370
    30
100
AcDbCircle
 10
1.1241101959
 20
-26.4153952578
 30
0.0
 40
0.0149000000000008
100
AcDbArc
 50
90.0
 51
180.0
  0
LINE
  5
175
330
1F
100
AcDbEntity
  8
0
  6
Continuous
 62
     7
370
    30
100
AcDbLine
 10
1.109210255
 20
-26.5105952584
 30
0.0
 11
1.109210255
 21
-26.4153952586
 31
0.0
  0
ARC
  5
176
330
1F
100
AcDbEntity
  8
0
  6
Continuous
 62
     7
370
    30
100
AcDbCircle
 10
1.1241101959
 20
-26.5105952578
 30
0.0
 40
0.0149000000000008
100
AcDbArc
 50
180.0
 51
270.0
  0
LINE
  5
177
330
1F
100
AcDbEntity
  8
0
  6
Continuous
 62
     7
370
    30
100
AcDbLine
 10
2.4063101959
 20
-26.5254952578
 30
0.0
 11
1.1241102428
 21
-26.5254952578
 31
0.0
  0
ARC
  5
178
330
1F
100
AcDbEntity
  8
0
  6
Continuous
 62
     7
370
    30
100
AcDbCircle
 10
2.4063101959
 20
-26.5105952578
 30
0.0
 40
0.0148999999999977
100
AcDbArc
 50
270.0
 51
0.0
  0
LINE
  5
179
330
1F
100
AcDbEntity
  8
0
  6
Continuous
 62
     7
370
    30
100
AcDbLine
 10
2.4212101958
 20
-26.4153952586
 30
0.0
 11
2.4212101958
 21
-26.5105952584
 31
0.0
  0
ARC
  5
17A
330
1F
100
AcDbEntity
  8
0
  6
Continuous
 62
     7
370
    30
100
AcDbCircle
 10
2.4063101959
 20
-26.4153952578
 30
0.0
 40
0.0149000000000008
100
AcDbArc
 50
0.0
 51
90.0
  0
LINE
  5
17B
330
1F
100
AcDbEntity
  8
0
  6
Continuous
 62
     7
370
    30
100
AcDbLine
 10
2.3111101972
 20
-26.4004952616
 30
0.0
 11
2.4063101959
 21
-26.4004952616
 31
0.0
  0
ARC
  5
17C
330
1F
100
AcDbEntity
  8
0
  6
Continuous
 62
     7
370
    30
100
AcDbCircle
 10
2.3111101959
 20
-26.3855952578
 30
0.0
 40
0.014899999999999
100
AcDbArc
 50
180.0
 51
270.0
  0
LINE
  5
17D
330
1F
100
AcDbEntity
  8
0
  6
Continuous
 62
     7
370
    30
100
AcDbLine
 10
2.2962102002
 20
-26.353395254
 30
0.0
 11
2.2962102002
 21
-26.3855952554
 31
0.0
  0
ARC
  5
17E
330
1F
100
AcDbEntity
  8
0
  6
Continuous
 62
     7
370
    30
100
AcDbCircle
 10
2.3111101959
 20
-26.3533952578
 30
0.0
 40
0.0148999999999999
100
AcDbArc
 50
90.0
 51
180.0
  0
LINE
  5
17F
330
1F
100
AcDbEntity
  8
0
  6
Continuous
 62
     7
370
    30
100
AcDbLine
 10
2.468310197
 20
-26.3384952661
 30
0.0
 11
2.3111101972
 21
-26.3384952661
 31
0.0
  0
ARC
  5
180
330
1F
100
AcDbEntity
  8
0
  6
Continuous
 62
     7
370
    30
100
AcDbCircle
 10
2.4683101959
 20
-26.3533952578
 30
0.0
 40
0.014899999999999
100
AcDbArc
 50
0.0
 51
90.0
  0
LINE
  5
181
330
1F
100
AcDbEntity
  8
0
  6
Continuous
 62
     7
370
    30
100
AcDbLine
 10
2.4832101941
 20
-26.76059526
 30
0.0
 11
2.4832101941
 21
-26.353395254
 31
0.0
  0
ARC
  5
182
330
1F
100
AcDbEntity
  8
0
  6
Continuous
 62
     7
370
    30
100
AcDbCircle
 10
2.4683101959
 20
-26.7605952578
 30
0.0
 40
0.014899999999999
100
AcDbArc
 50
270.0
 51
0.0
  0
LINE
  5
183
330
1F
100
AcDbEntity
  8
0
  6
Continuous
 62
     7
370
    30
100
AcDbLine
 10
2.3111101972
 20
-26.7754952662
 30
0.0
 11
2.468310197
 21
-26.7754952662
 31
0.0
  0
ARC
  5
184
330
1F
100
AcDbEntity
  8
0
  6
Continuous
 62
     7
370
    30
100
AcDbCircle
 10
2.3111101959
 20
-26.7605952578
 30
0.0
 40
0.0148999999999995
100
AcDbArc
 50
180.0
 51
270.0
  0
LINE
  5
185
330
1F
100
AcDbEntity
  8
0
  6
Continuous
 62
     7
370
    30
100
AcDbLine
 10
2.2962102002
 20
-26.7273952602
 30
0.0
 11
2.2962102002
 21
-26.76059526
 31
0.0
  0
ARC
  5
186
330
1F
100
AcDbEntity
  8
0
  6
Continuous
 62
     7
370
    30
100
AcDbCircle
 10
2.3111101959
 20
-26.7273952578
 30
0.0
 40
0.0149000000000008
100
AcDbArc
 50
90.0
 51
180.0
  0
LINE
  5
187
330
1F
100
AcDbEntity
  8
0
  6
Continuous
 62
     7
370
    30
100
AcDbLine
 10
2.4063101959
 20
-26.712495254
 30
0.0
 11
2.3111101972
 21
-26.712495254
 31
0.0
  0
ARC
  5
188
330
1F
100
AcDbEntity
  8
0
  6
Continuous
 62
     7
370
    30
100
AcDbCircle
 10
2.4063101959
 20
-26.6975952578
 30
0.0
 40
0.0148999999999986
100
AcDbArc
 50
270.0
 51
0.0
  0
LINE
  5
189
330
1F
100
AcDbEntity
  8
0
  6
Continuous
 62
     7
370
    30
100
AcDbLine
 10
2.4212101958
 20
-26.6023952571
 30
0.0
 11
2.4212101958
 21
-26.6975952569
 31
0.0
  0
ARC
  5
18A
330
1F
100
AcDbEntity
  8
0
  6
Continuous
 62
     7
370
    30
100
AcDbCircle
 10
2.4063101959
 20
-26.6023952578
 30
0.0
 40
0.0148999999999986
100
AcDbArc
 50
0.0
 51
90.0
  0
ARC
  5
18B
330
1F
100
AcDbEntity
  8
0
  6
Continuous
 62
     7
370
    30
100
AcDbCircle
 10
0.8151101959
 20
-26.4510047166
 30
0.0
 40
0.0149
100
AcDbArc
 50
180.0
 51
225.0
  0
LINE
  5
18C
330
1F
100
AcDbEntity
  8
0
  6
Continuous
 62
     7
370
    30
100
AcDbLine
 10
0.8002101846
 20
-25.6028952272
 30
0.0
 11
0.8002101846
 21
-26.4510047164
 31
0.0
  0
ARC
  5
18D
330
1F
100
AcDbEntity
  8
0
  6
Continuous
 62
     7
370
    30
100
AcDbCircle
 10
0.8151101959
 20
-25.6028952578
 30
0.0
 40
0.0149000000000008
100
AcDbArc
 50
90.0
 51
180.0
  0
ARC
  5
18E
330
1F
100
AcDbEntity
  8
0
  6
Continuous
 62
     7
370
    30
100
AcDbCircle
 10
0.8151101959
 20
-27.5100952578
 30
0.0
 40
0.0148999999999991
100
AcDbArc
 50
180.0
 51
270.0
  0
LINE
  5
18F
330
1F
100
AcDbEntity
  8
0
  6
Continuous
 62
     7
370
    30
100
AcDbLine
 10
0.8002101846
 20
-26.6619857991
 30
0.0
 11
0.8002101846
 21
-27.5100952884
 31
0.0
  0
ARC
  5
190
330
1F
100
AcDbEntity
  8
0
  6
Continuous
 62
     7
370
    30
100
AcDbCircle
 10
0.8151101959
 20
-26.661985799
 30
0.0
 40
0.0148999999999991
100
AcDbArc
 50
135.0
 51
180.0
  0
ARC
  5
191
330
1F
100
AcDbEntity
  8
0
  6
Continuous
 62
     7
370
    30
100
AcDbCircle
 10
2.4013772211
 20
-23.2709952578
 30
0.0
 40
0.0150000000000006
100
AcDbArc
 50
270.0
 51
0.0
  0
LINE
  5
192
330
1F
100
AcDbEntity
  8
0
  6
Continuous
 62
     7
370
    30
100
AcDbLine
 10
2.4163772211
 20
-23.1759952429
 30
0.0
 11
2.4163772211
 21
-23.2709951321
 31
0.0
  0
ARC
  5
193
330
1F
100
AcDbEntity
  8
0
  6
Continuous
 62
     7
370
    30
100
AcDbCircle
 10
2.4013772211
 20
-23.1759952578
 30
0.0
 40
0.0149999999999997
100
AcDbArc
 50
0.0
 51
90.0
  0
LINE
  5
194
330
1F
100
AcDbEntity
  8
0
  6
Continuous
 62
     7
370
    30
100
AcDbLine
 10
1.1193772175
 20
-23.1609952295
 30
0.0
 11
1.1194391101
 21
-23.1609952295
 31
0.0
  0
LINE
  5
195
330
1F
100
AcDbEntity
  8
0
  6
Continuous
 62
     7
370
    30
100
AcDbLine
 10
1.6043772348
 20
-23.1609952295
 30
0.0
 11
2.4013772215
 21
-23.1609952295
 31
0.0
  0
ARC
  5
196
330
1F
100
AcDbEntity
  8
0
  6
Continuous
 62
     7
370
    30
100
AcDbCircle
 10
1.1193772211
 20
-23.1759952578
 30
0.0
 40
0.0149999999999999
100
AcDbArc
 50
90.0
 51
180.0
  0
LINE
  5
197
330
1F
100
AcDbEntity
  8
0
  6
Continuous
 62
     7
370
    30
100
AcDbLine
 10
1.1043772041
 20
-23.2709951321
 30
0.0
 11
1.1043772041
 21
-23.1759952429
 31
0.0
  0
ARC
  5
198
330
1F
100
AcDbEntity
  8
0
  6
Continuous
 62
     7
370
    30
100
AcDbCircle
 10
1.1193772211
 20
-23.2709952578
 30
0.0
 40
0.0150000000000006
100
AcDbArc
 50
180.0
 51
270.0
  0
LINE
  5
199
330
1F
100
AcDbEntity
  8
0
  6
Continuous
 62
     7
370
    30
100
AcDbLine
 10
1.4013772198
 20
-23.2859951455
 30
0.0
 11
1.1193772175
 21
-23.2859951455
 31
0.0
  0
ARC
  5
19A
330
1F
100
AcDbEntity
  8
0
  6
Continuous
 62
     7
370
    30
100
AcDbCircle
 10
1.4013772211
 20
-23.3009952578
 30
0.0
 40
0.0150000000000041
100
AcDbArc
 50
0.0
 51
90.0
  0
LINE
  5
19B
330
1F
100
AcDbEntity
  8
0
  6
Continuous
 62
     7
370
    30
100
AcDbLine
 10
1.4163772332
 20
-23.3329954026
 30
0.0
 11
1.4163772332
 21
-23.3009951589
 31
0.0
  0
ARC
  5
19C
330
1F
100
AcDbEntity
  8
0
  6
Continuous
 62
     7
370
    30
100
AcDbCircle
 10
1.4013772211
 20
-23.3329952578
 30
0.0
 40
0.0149999999999997
100
AcDbArc
 50
270.0
 51
0.0
  0
LINE
  5
19D
330
1F
100
AcDbEntity
  8
0
  6
Continuous
 62
     7
370
    30
100
AcDbLine
 10
0.9815904626
 20
-23.3479951226
 30
0.0
 11
1.4013772198
 21
-23.3479951226
 31
0.0
  0
ARC
  5
19E
330
1F
100
AcDbEntity
  8
0
  6
Continuous
 62
     7
370
    30
100
AcDbCircle
 10
0.9815904246
 20
-23.3629952578
 30
0.0
 40
0.0150000000000041
100
AcDbArc
 50
90.0
 51
135.0
  0
LINE
  5
19F
330
1F
100
AcDbEntity
  8
0
  6
Continuous
 62
     7
370
    30
100
AcDbLine
 10
0.8617706068
 20
-23.4616018102
 30
0.0
 11
0.9709837984
 21
-23.3523886185
 31
0.0
  0
ARC
  5
1A0
330
1F
100
AcDbEntity
  8
0
  6
Continuous
 62
     7
370
    30
100
AcDbCircle
 10
0.8723772211
 20
-23.4722084612
 30
0.0
 40
0.015
100
AcDbArc
 50
135.0
 51
180.0
  0
LINE
  5
1A1
330
1F
100
AcDbEntity
  8
0
  6
Continuous
 62
     7
370
    30
100
AcDbLine
 10
0.8573772575
 20
-24.0829951919
 30
0.0
 11
0.8573772575
 21
-23.4722083277
 31
0.0
  0
ARC
  5
1A2
330
1F
100
AcDbEntity
  8
0
  6
Continuous
 62
     7
370
    30
100
AcDbCircle
 10
0.8423772211
 20
-24.0829952578
 30
0.0
 40
0.0150000000000006
100
AcDbArc
 50
270.0
 51
0.0
  0
LINE
  5
1A3
330
1F
100
AcDbEntity
  8
0
  6
Continuous
 62
     7
370
    30
100
AcDbLine
 10
0.8103772938
 20
-24.0979952052
 30
0.0
 11
0.8423772441
 21
-24.0979952052
 31
0.0
  0
LINE
  5
1A4
330
1F
100
AcDbEntity
  8
0
  6
Continuous
 62
     7
370
    30
100
AcDbLine
 10
0.7953772804
 20
-22.4879951374
 30
0.0
 11
0.7953772804
 21
-24.0829951919
 31
0.0
  0
ARC
  5
1A5
330
1F
100
AcDbEntity
  8
0
  6
Continuous
 62
     7
370
    30
100
AcDbCircle
 10
0.8103772211
 20
-22.4879952578
 30
0.0
 40
0.0149999999999999
100
AcDbArc
 50
90.0
 51
180.0
  0
LINE
  5
1A6
330
1F
100
AcDbEntity
  8
0
  6
Continuous
 62
     7
370
    30
100
AcDbLine
 10
0.8423772441
 20
-22.472995124
 30
0.0
 11
0.8103772938
 21
-22.472995124
 31
0.0
  0
ARC
  5
1A7
330
1F
100
AcDbEntity
  8
0
  6
Continuous
 62
     7
370
    30
100
AcDbCircle
 10
0.8423772211
 20
-22.4879952578
 30
0.0
 40
0.015
100
AcDbArc
 50
0.0
 51
90.0
  0
LINE
  5
1A8
330
1F
100
AcDbEntity
  8
0
  6
Continuous
 62
     7
370
    30
100
AcDbLine
 10
0.8573772575
 20
-23.0189953766
 30
0.0
 11
0.8573772575
 21
-22.4879951374
 31
0.0
  0
ARC
  5
1A9
330
1F
100
AcDbEntity
  8
0
  6
Continuous
 62
     7
370
    30
100
AcDbCircle
 10
0.8723772211
 20
-23.0189952578
 30
0.0
 40
0.0150000000000006
100
AcDbArc
 50
180.0
 51
270.0
  0
LINE
  5
1AA
330
1F
100
AcDbEntity
  8
0
  6
Continuous
 62
     7
370
    30
100
AcDbLine
 10
0.905377183
 20
-23.03399539
 30
0.0
 11
0.8723772709
 21
-23.03399539
 31
0.0
  0
ARC
  5
1AB
330
1F
100
AcDbEntity
  8
0
  6
Continuous
 62
     7
370
    30
100
AcDbCircle
 10
0.9053772211
 20
-23.0489952578
 30
0.0
 40
0.015
100
AcDbArc
 50
0.0
 51
90.0
  0
LINE
  5
1AC
330
1F
100
AcDbEntity
  8
0
  6
Continuous
 62
     7
370
    30
100
AcDbLine
 10
0.9203771964
 20
-23.0809953537
 30
0.0
 11
0.9203771964
 21
-23.0489954034
 31
0.0
  0
ARC
  5
1AD
330
1F
100
AcDbEntity
  8
0
  6
Continuous
 62
     7
370
    30
100
AcDbCircle
 10
0.9053772211
 20
-23.0809952578
 30
0.0
 40
0.015
100
AcDbArc
 50
270.0
 51
0.0
  0
LINE
  5
1AE
330
1F
100
AcDbEntity
  8
0
  6
Continuous
 62
     7
370
    30
100
AcDbLine
 10
0.8723772709
 20
-23.0959953671
 30
0.0
 11
0.905377183
 21
-23.0959953671
 31
0.0
  0
ARC
  5
1AF
330
1F
100
AcDbEntity
  8
0
  6
Continuous
 62
     7
370
    30
100
AcDbCircle
 10
0.8723772211
 20
-23.1109952578
 30
0.0
 40
0.0150000000000006
100
AcDbArc
 50
90.0
 51
180.0
  0
LINE
  5
1B0
330
1F
100
AcDbEntity
  8
0
  6
Continuous
 62
     7
370
    30
100
AcDbLine
 10
0.8573772575
 20
-23.3300298368
 30
0.0
 11
0.8573772575
 21
-23.1109953805
 31
0.0
  0
ARC
  5
1B1
330
1F
100
AcDbEntity
  8
0
  6
Continuous
 62
     7
370
    30
100
AcDbCircle
 10
0.8773772211
 20
-23.3300297457
 30
0.0
 40
0.0200000000000009
100
AcDbArc
 50
180.0
 51
315.0
  0
LINE
  5
1B2
330
1F
100
AcDbEntity
  8
0
  6
Continuous
 62
     7
370
    30
100
AcDbLine
 10
0.9453026151
 20
-23.2903886414
 30
0.0
 11
0.8915193964
 21
-23.3441718601
 31
0.0
  0
ARC
  5
1B3
330
1F
100
AcDbEntity
  8
0
  6
Continuous
 62
     7
370
    30
100
AcDbCircle
 10
0.9559091837
 20
-23.3009952578
 30
0.0
 40
0.0150000000000041
100
AcDbArc
 50
90.0
 51
135.0
  0
LINE
  5
1B4
330
1F
100
AcDbEntity
  8
0
  6
Continuous
 62
     7
370
    30
100
AcDbLine
 10
1.0273772137
 20
-23.2859951455
 30
0.0
 11
0.9559091326
 21
-23.2859951455
 31
0.0
  0
ARC
  5
1B5
330
1F
100
AcDbEntity
  8
0
  6
Continuous
 62
     7
370
    30
100
AcDbCircle
 10
1.0273772211
 20
-23.2709952578
 30
0.0
 40
0.0150000000000006
100
AcDbArc
 50
270.0
 51
0.0
  0
LINE
  5
1B6
330
1F
100
AcDbEntity
  8
0
  6
Continuous
 62
     7
370
    30
100
AcDbLine
 10
1.042377227
 20
-22.9889953498
 30
0.0
 11
1.042377227
 21
-23.2709951321
 31
0.0
  0
ARC
  5
1B7
330
1F
100
AcDbEntity
  8
0
  6
Continuous
 62
     7
370
    30
100
AcDbCircle
 10
1.0573772211
 20
-22.9889952578
 30
0.0
 40
0.0149999999999999
100
AcDbArc
 50
90.0
 51
180.0
  0
LINE
  5
1B8
330
1F
100
AcDbEntity
  8
0
  6
Continuous
 62
     7
370
    30
100
AcDbLine
 10
1.1573772319
 20
-22.9739953364
 30
0.0
 11
1.0573772404
 21
-22.9739953364
 31
0.0
  0
ARC
  5
1B9
330
1F
100
AcDbEntity
  8
0
  6
Continuous
 62
     7
370
    30
100
AcDbCircle
 10
1.1573772211
 20
-22.9889952578
 30
0.0
 40
0.0149999999999999
100
AcDbArc
 50
0.0
 51
90.0
  0
LINE
  5
1BA
330
1F
100
AcDbEntity
  8
0
  6
Continuous
 62
     7
370
    30
100
AcDbLine
 10
1.1723772453
 20
-23.0209953002
 30
0.0
 11
1.1723772453
 21
-22.9889953498
 31
0.0
  0
ARC
  5
1BB
330
1F
100
AcDbEntity
  8
0
  6
Continuous
 62
     7
370
    30
100
AcDbCircle
 10
1.1573772211
 20
-23.0209952578
 30
0.0
 40
0.0149999999999999
100
AcDbArc
 50
270.0
 51
0.0
  0
LINE
  5
1BC
330
1F
100
AcDbEntity
  8
0
  6
Continuous
 62
     7
370
    30
100
AcDbLine
 10
1.1193772175
 20
-23.0359953136
 30
0.0
 11
1.1573772319
 21
-23.0359953136
 31
0.0
  0
ARC
  5
1BD
330
1F
100
AcDbEntity
  8
0
  6
Continuous
 62
     7
370
    30
100
AcDbCircle
 10
1.1193772211
 20
-23.0509952578
 30
0.0
 40
0.0150000000000006
100
AcDbArc
 50
90.0
 51
180.0
  0
LINE
  5
1BE
330
1F
100
AcDbEntity
  8
0
  6
Continuous
 62
     7
370
    30
100
AcDbLine
 10
1.1043772041
 20
-23.0839952391
 30
0.0
 11
1.1043772041
 21
-23.0509953269
 31
0.0
  0
ARC
  5
1BF
330
1F
100
AcDbEntity
  8
0
  6
Continuous
 62
     7
370
    30
100
AcDbCircle
 10
1.1193772211
 20
-23.0839952578
 30
0.0
 40
0.0150000000000041
100
AcDbArc
 50
180.0
 51
270.0
  0
LINE
  5
1C0
330
1F
100
AcDbEntity
  8
0
  6
Continuous
 62
     7
370
    30
100
AcDbLine
 10
1.7143772107
 20
-23.0989952524
 30
0.0
 11
1.1193772175
 21
-23.0989952524
 31
0.0
  0
ARC
  5
1C1
330
1F
100
AcDbEntity
  8
0
  6
Continuous
 62
     7
370
    30
100
AcDbCircle
 10
1.7143772211
 20
-23.0839952578
 30
0.0
 40
0.0150000000000041
100
AcDbArc
 50
270.0
 51
0.0
  0
LINE
  5
1C2
330
1F
100
AcDbEntity
  8
0
  6
Continuous
 62
     7
370
    30
100
AcDbLine
 10
1.7293772241
 20
-23.0509953269
 30
0.0
 11
1.7293772241
 21
-23.0839952391
 31
0.0
  0
ARC
  5
1C3
330
1F
100
AcDbEntity
  8
0
  6
Continuous
 62
     7
370
    30
100
AcDbCircle
 10
1.7143772211
 20
-23.0509952578
 30
0.0
 40
0.0150000000000006
100
AcDbArc
 50
0.0
 51
90.0
  0
LINE
  5
1C4
330
1F
100
AcDbEntity
  8
0
  6
Continuous
 62
     7
370
    30
100
AcDbLine
 10
1.6763771963
 20
-23.0359953136
 30
0.0
 11
1.7143772107
 21
-23.0359953136
 31
0.0
  0
ARC
  5
1C5
330
1F
100
AcDbEntity
  8
0
  6
Continuous
 62
     7
370
    30
100
AcDbCircle
 10
1.6763772211
 20
-23.0209952578
 30
0.0
 40
0.0149999999999999
100
AcDbArc
 50
180.0
 51
270.0
  0
LINE
  5
1C6
330
1F
100
AcDbEntity
  8
0
  6
Continuous
 62
     7
370
    30
100
AcDbLine
 10
1.6613772563
 20
-22.9889953498
 30
0.0
 11
1.6613772563
 21
-23.0209953002
 31
0.0
  0
ARC
  5
1C7
330
1F
100
AcDbEntity
  8
0
  6
Continuous
 62
     7
370
    30
100
AcDbCircle
 10
1.6763772211
 20
-22.9889952578
 30
0.0
 40
0.0149999999999999
100
AcDbArc
 50
90.0
 51
180.0
  0
LINE
  5
1C8
330
1F
100
AcDbEntity
  8
0
  6
Continuous
 62
     7
370
    30
100
AcDbLine
 10
1.8443772289
 20
-22.9739953364
 30
0.0
 11
1.6763771963
 21
-22.9739953364
 31
0.0
  0
ARC
  5
1C9
330
1F
100
AcDbEntity
  8
0
  6
Continuous
 62
     7
370
    30
100
AcDbCircle
 10
1.8443772211
 20
-22.9889952578
 30
0.0
 40
0.0150000000000001
100
AcDbArc
 50
0.0
 51
90.0
  0
LINE
  5
1CA
330
1F
100
AcDbEntity
  8
0
  6
Continuous
 62
     7
370
    30
100
AcDbLine
 10
1.8593772056
 20
-23.0209953002
 30
0.0
 11
1.8593772056
 21
-22.9889953498
 31
0.0
  0
ARC
  5
1CB
330
1F
100
AcDbEntity
  8
0
  6
Continuous
 62
     7
370
    30
100
AcDbCircle
 10
1.8443772211
 20
-23.0209952578
 30
0.0
 40
0.0150000000000001
100
AcDbArc
 50
270.0
 51
0.0
  0
LINE
  5
1CC
330
1F
100
AcDbEntity
  8
0
  6
Continuous
 62
     7
370
    30
100
AcDbLine
 10
1.8063772146
 20
-23.0359953136
 30
0.0
 11
1.8443772289
 21
-23.0359953136
 31
0.0
  0
ARC
  5
1CD
330
1F
100
AcDbEntity
  8
0
  6
Continuous
 62
     7
370
    30
100
AcDbCircle
 10
1.8063772211
 20
-23.0509952578
 30
0.0
 40
0.0150000000000006
100
AcDbArc
 50
90.0
 51
180.0
  0
LINE
  5
1CE
330
1F
100
AcDbEntity
  8
0
  6
Continuous
 62
     7
370
    30
100
AcDbLine
 10
1.7913772012
 20
-23.0839952391
 30
0.0
 11
1.7913772012
 21
-23.0509953269
 31
0.0
  0
ARC
  5
1CF
330
1F
100
AcDbEntity
  8
0
  6
Continuous
 62
     7
370
    30
100
AcDbCircle
 10
1.8063772211
 20
-23.0839952578
 30
0.0
 40
0.0150000000000041
100
AcDbArc
 50
180.0
 51
270.0
  0
LINE
  5
1D0
330
1F
100
AcDbEntity
  8
0
  6
Continuous
 62
     7
370
    30
100
AcDbLine
 10
2.4013772215
 20
-23.0989952524
 30
0.0
 11
1.8063772146
 21
-23.0989952524
 31
0.0
  0
ARC
  5
1D1
330
1F
100
AcDbEntity
  8
0
  6
Continuous
 62
     7
370
    30
100
AcDbCircle
 10
2.4013772211
 20
-23.0839952578
 30
0.0
 40
0.0150000000000041
100
AcDbArc
 50
270.0
 51
0.0
  0
LINE
  5
1D2
330
1F
100
AcDbEntity
  8
0
  6
Continuous
 62
     7
370
    30
100
AcDbLine
 10
2.4163772211
 20
-23.0509953269
 30
0.0
 11
2.4163772211
 21
-23.0839952391
 31
0.0
  0
ARC
  5
1D3
330
1F
100
AcDbEntity
  8
0
  6
Continuous
 62
     7
370
    30
100
AcDbCircle
 10
2.4013772211
 20
-23.0509952578
 30
0.0
 40
0.0150000000000006
100
AcDbArc
 50
0.0
 51
90.0
  0
LINE
  5
1D4
330
1F
100
AcDbEntity
  8
0
  6
Continuous
 62
     7
370
    30
100
AcDbLine
 10
2.3633772209
 20
-23.0359953136
 30
0.0
 11
2.4013772215
 21
-23.0359953136
 31
0.0
  0
ARC
  5
1D5
330
1F
100
AcDbEntity
  8
0
  6
Continuous
 62
     7
370
    30
100
AcDbCircle
 10
2.3633772211
 20
-23.0209952578
 30
0.0
 40
0.0150000000000001
100
AcDbArc
 50
180.0
 51
270.0
  0
LINE
  5
1D6
330
1F
100
AcDbEntity
  8
0
  6
Continuous
 62
     7
370
    30
100
AcDbLine
 10
2.3483772213
 20
-22.9889953498
 30
0.0
 11
2.3483772213
 21
-23.0209953002
 31
0.0
  0
ARC
  5
1D7
330
1F
100
AcDbEntity
  8
0
  6
Continuous
 62
     7
370
    30
100
AcDbCircle
 10
2.3633772211
 20
-22.9889952578
 30
0.0
 40
0.0150000000000001
100
AcDbArc
 50
90.0
 51
180.0
  0
LINE
  5
1D8
330
1F
100
AcDbEntity
  8
0
  6
Continuous
 62
     7
370
    30
100
AcDbLine
 10
2.4633772215
 20
-22.9739953364
 30
0.0
 11
2.3633772209
 21
-22.9739953364
 31
0.0
  0
ARC
  5
1D9
330
1F
100
AcDbEntity
  8
0
  6
Continuous
 62
     7
370
    30
100
AcDbCircle
 10
2.4633772211
 20
-22.9889952578
 30
0.0
 40
0.0149999999999997
100
AcDbArc
 50
0.0
 51
90.0
  0
LINE
  5
1DA
330
1F
100
AcDbEntity
  8
0
  6
Continuous
 62
     7
370
    30
100
AcDbLine
 10
2.4783772212
 20
-23.3329954026
 30
0.0
 11
2.4783772212
 21
-22.9889953498
 31
0.0
  0
ARC
  5
1DB
330
1F
100
AcDbEntity
  8
0
  6
Continuous
 62
     7
370
    30
100
AcDbCircle
 10
2.4633772211
 20
-23.3329952578
 30
0.0
 40
0.0149999999999997
100
AcDbArc
 50
270.0
 51
0.0
  0
LINE
  5
1DC
330
1F
100
AcDbEntity
  8
0
  6
Continuous
 62
     7
370
    30
100
AcDbLine
 10
2.3063772177
 20
-23.3479951226
 30
0.0
 11
2.4633772215
 21
-23.3479951226
 31
0.0
  0
ARC
  5
1DD
330
1F
100
AcDbEntity
  8
0
  6
Continuous
 62
     7
370
    30
100
AcDbCircle
 10
2.3063772211
 20
-23.3329952578
 30
0.0
 40
0.0150000000000001
100
AcDbArc
 50
180.0
 51
270.0
  0
LINE
  5
1DE
330
1F
100
AcDbEntity
  8
0
  6
Continuous
 62
     7
370
    30
100
AcDbLine
 10
2.2913772226
 20
-23.3009951589
 30
0.0
 11
2.2913772226
 21
-23.3329954026
 31
0.0
  0
ARC
  5
1DF
330
1F
100
AcDbEntity
  8
0
  6
Continuous
 62
     7
370
    30
100
AcDbCircle
 10
2.3063772211
 20
-23.3009952578
 30
0.0
 40
0.0150000000000041
100
AcDbArc
 50
90.0
 51
180.0
  0
LINE
  5
1E0
330
1F
100
AcDbEntity
  8
0
  6
Continuous
 62
     7
370
    30
100
AcDbLine
 10
2.4013772215
 20
-23.2859951455
 30
0.0
 11
2.3063772177
 21
-23.2859951455
 31
0.0
  0
ARC
  5
1E1
330
1F
100
AcDbEntity
  8
0
  6
Continuous
 62
     7
370
    30
100
AcDbCircle
 10
0.8103772211
 20
-24.0829952578
 30
0.0
 40
0.0150000000000006
100
AcDbArc
 50
180.0
 51
270.0
  0
ARC
  5
1E2
330
1F
100
AcDbEntity
  8
0
  6
Continuous
 62
     7
370
    30
100
AcDbCircle
 10
2.3063772211
 20
-29.7799952578
 30
0.0
 40
0.0150000000000006
100
AcDbArc
 50
90.0
 51
180.0
  0
LINE
  5
1E3
330
1F
100
AcDbEntity
  8
0
  6
Continuous
 62
     7
370
    30
100
AcDbLine
 10
2.3063772177
 20
-29.7649953929
 30
0.0
 11
2.4633772215
 21
-29.7649953929
 31
0.0
  0
ARC
  5
1E4
330
1F
100
AcDbEntity
  8
0
  6
Continuous
 62
     7
370
    30
100
AcDbCircle
 10
2.4633772211
 20
-29.7799952578
 30
0.0
 40
0.0150000000000006
100
AcDbArc
 50
0.0
 51
90.0
  0
LINE
  5
1E5
330
1F
100
AcDbEntity
  8
0
  6
Continuous
 62
     7
370
    30
100
AcDbLine
 10
2.4783772212
 20
-29.779995113
 30
0.0
 11
2.4783772212
 21
-30.1239951657
 31
0.0
  0
ARC
  5
1E6
330
1F
100
AcDbEntity
  8
0
  6
Continuous
 62
     7
370
    30
100
AcDbCircle
 10
2.4633772211
 20
-30.1239952578
 30
0.0
 40
0.0150000000000006
100
AcDbArc
 50
270.0
 51
0.0
  0
LINE
  5
1E7
330
1F
100
AcDbEntity
  8
0
  6
Continuous
 62
     7
370
    30
100
AcDbLine
 10
2.4633772215
 20
-30.1389951791
 30
0.0
 11
2.3633772209
 21
-30.1389951791
 31
0.0
  0
ARC
  5
1E8
330
1F
100
AcDbEntity
  8
0
  6
Continuous
 62
     7
370
    30
100
AcDbCircle
 10
2.3633772211
 20
-30.1239952578
 30
0.0
 40
0.0149999999999997
100
AcDbArc
 50
180.0
 51
270.0
  0
LINE
  5
1E9
330
1F
100
AcDbEntity
  8
0
  6
Continuous
 62
     7
370
    30
100
AcDbLine
 10
2.3483772213
 20
-30.1239951657
 30
0.0
 11
2.3483772213
 21
-30.0919952154
 31
0.0
  0
ARC
  5
1EA
330
1F
100
AcDbEntity
  8
0
  6
Continuous
 62
     7
370
    30
100
AcDbCircle
 10
2.3633772211
 20
-30.0919952578
 30
0.0
 40
0.0149999999999997
100
AcDbArc
 50
90.0
 51
180.0
  0
LINE
  5
1EB
330
1F
100
AcDbEntity
  8
0
  6
Continuous
 62
     7
370
    30
100
AcDbLine
 10
2.3633772209
 20
-30.076995202
 30
0.0
 11
2.4013772215
 21
-30.076995202
 31
0.0
  0
ARC
  5
1EC
330
1F
100
AcDbEntity
  8
0
  6
Continuous
 62
     7
370
    30
100
AcDbCircle
 10
2.4013772211
 20
-30.0619952578
 30
0.0
 40
0.0150000000000041
100
AcDbArc
 50
270.0
 51
0.0
  0
LINE
  5
1ED
330
1F
100
AcDbEntity
  8
0
  6
Continuous
 62
     7
370
    30
100
AcDbLine
 10
2.4163772211
 20
-30.0619951886
 30
0.0
 11
2.4163772211
 21
-30.0289952765
 31
0.0
  0
ARC
  5
1EE
330
1F
100
AcDbEntity
  8
0
  6
Continuous
 62
     7
370
    30
100
AcDbCircle
 10
2.4013772211
 20
-30.0289952578
 30
0.0
 40
0.0150000000000001
100
AcDbArc
 50
0.0
 51
90.0
  0
LINE
  5
1EF
330
1F
100
AcDbEntity
  8
0
  6
Continuous
 62
     7
370
    30
100
AcDbLine
 10
2.4013772215
 20
-30.0139952631
 30
0.0
 11
1.8063772146
 21
-30.0139952631
 31
0.0
  0
ARC
  5
1F0
330
1F
100
AcDbEntity
  8
0
  6
Continuous
 62
     7
370
    30
100
AcDbCircle
 10
1.8063772211
 20
-30.0289952578
 30
0.0
 40
0.0150000000000041
100
AcDbArc
 50
90.0
 51
180.0
  0
LINE
  5
1F1
330
1F
100
AcDbEntity
  8
0
  6
Continuous
 62
     7
370
    30
100
AcDbLine
 10
1.7913772012
 20
-30.0289952765
 30
0.0
 11
1.7913772012
 21
-30.0619951886
 31
0.0
  0
ARC
  5
1F2
330
1F
100
AcDbEntity
  8
0
  6
Continuous
 62
     7
370
    30
100
AcDbCircle
 10
1.8063772211
 20
-30.0619952578
 30
0.0
 40
0.0150000000000041
100
AcDbArc
 50
180.0
 51
270.0
  0
LINE
  5
1F3
330
1F
100
AcDbEntity
  8
0
  6
Continuous
 62
     7
370
    30
100
AcDbLine
 10
1.8063772146
 20
-30.076995202
 30
0.0
 11
1.8443772289
 21
-30.076995202
 31
0.0
  0
ARC
  5
1F4
330
1F
100
AcDbEntity
  8
0
  6
Continuous
 62
     7
370
    30
100
AcDbCircle
 10
1.8443772211
 20
-30.0919952578
 30
0.0
 40
0.0149999999999999
100
AcDbArc
 50
0.0
 51
90.0
  0
LINE
  5
1F5
330
1F
100
AcDbEntity
  8
0
  6
Continuous
 62
     7
370
    30
100
AcDbLine
 10
1.8593772056
 20
-30.0919952154
 30
0.0
 11
1.8593772056
 21
-30.1239951657
 31
0.0
  0
ARC
  5
1F6
330
1F
100
AcDbEntity
  8
0
  6
Continuous
 62
     7
370
    30
100
AcDbCircle
 10
1.8443772211
 20
-30.1239952578
 30
0.0
 40
0.0149999999999999
100
AcDbArc
 50
270.0
 51
0.0
  0
LINE
  5
1F7
330
1F
100
AcDbEntity
  8
0
  6
Continuous
 62
     7
370
    30
100
AcDbLine
 10
1.8443772289
 20
-30.1389951791
 30
0.0
 11
1.6763771963
 21
-30.1389951791
 31
0.0
  0
ARC
  5
1F8
330
1F
100
AcDbEntity
  8
0
  6
Continuous
 62
     7
370
    30
100
AcDbCircle
 10
1.6763772211
 20
-30.1239952578
 30
0.0
 40
0.0149999999999997
100
AcDbArc
 50
180.0
 51
270.0
  0
LINE
  5
1F9
330
1F
100
AcDbEntity
  8
0
  6
Continuous
 62
     7
370
    30
100
AcDbLine
 10
1.6613772563
 20
-30.1239951657
 30
0.0
 11
1.6613772563
 21
-30.0919952154
 31
0.0
  0
ARC
  5
1FA
330
1F
100
AcDbEntity
  8
0
  6
Continuous
 62
     7
370
    30
100
AcDbCircle
 10
1.6763772211
 20
-30.0919952578
 30
0.0
 40
0.0149999999999997
100
AcDbArc
 50
90.0
 51
180.0
  0
LINE
  5
1FB
330
1F
100
AcDbEntity
  8
0
  6
Continuous
 62
     7
370
    30
100
AcDbLine
 10
1.6763771963
 20
-30.076995202
 30
0.0
 11
1.7143772107
 21
-30.076995202
 31
0.0
  0
ARC
  5
1FC
330
1F
100
AcDbEntity
  8
0
  6
Continuous
 62
     7
370
    30
100
AcDbCircle
 10
1.7143772211
 20
-30.0619952578
 30
0.0
 40
0.0150000000000041
100
AcDbArc
 50
270.0
 51
0.0
  0
LINE
  5
1FD
330
1F
100
AcDbEntity
  8
0
  6
Continuous
 62
     7
370
    30
100
AcDbLine
 10
1.7293772241
 20
-30.0619951886
 30
0.0
 11
1.7293772241
 21
-30.0289952765
 31
0.0
  0
ARC
  5
1FE
330
1F
100
AcDbEntity
  8
0
  6
Continuous
 62
     7
370
    30
100
AcDbCircle
 10
1.7143772211
 20
-30.0289952578
 30
0.0
 40
0.0150000000000041
100
AcDbArc
 50
0.0
 51
90.0
  0
LINE
  5
1FF
330
1F
100
AcDbEntity
  8
0
  6
Continuous
 62
     7
370
    30
100
AcDbLine
 10
1.7143772107
 20
-30.0139952631
 30
0.0
 11
1.1193772175
 21
-30.0139952631
 31
0.0
  0
ARC
  5
200
330
1F
100
AcDbEntity
  8
0
  6
Continuous
 62
     7
370
    30
100
AcDbCircle
 10
1.1193772211
 20
-30.0289952578
 30
0.0
 40
0.0150000000000041
100
AcDbArc
 50
90.0
 51
180.0
  0
LINE
  5
201
330
1F
100
AcDbEntity
  8
0
  6
Continuous
 62
     7
370
    30
100
AcDbLine
 10
1.1043772041
 20
-30.0289952765
 30
0.0
 11
1.1043772041
 21
-30.0619951886
 31
0.0
  0
ARC
  5
202
330
1F
100
AcDbEntity
  8
0
  6
Continuous
 62
     7
370
    30
100
AcDbCircle
 10
1.1193772211
 20
-30.0619952578
 30
0.0
 40
0.0150000000000006
100
AcDbArc
 50
180.0
 51
270.0
  0
LINE
  5
203
330
1F
100
AcDbEntity
  8
0
  6
Continuous
 62
     7
370
    30
100
AcDbLine
 10
1.1193772175
 20
-30.076995202
 30
0.0
 11
1.1573772319
 21
-30.076995202
 31
0.0
  0
ARC
  5
204
330
1F
100
AcDbEntity
  8
0
  6
Continuous
 62
     7
370
    30
100
AcDbCircle
 10
1.1573772211
 20
-30.0919952578
 30
0.0
 40
0.0150000000000001
100
AcDbArc
 50
0.0
 51
90.0
  0
LINE
  5
205
330
1F
100
AcDbEntity
  8
0
  6
Continuous
 62
     7
370
    30
100
AcDbLine
 10
1.1723772453
 20
-30.0919952154
 30
0.0
 11
1.1723772453
 21
-30.1239951657
 31
0.0
  0
ARC
  5
206
330
1F
100
AcDbEntity
  8
0
  6
Continuous
 62
     7
370
    30
100
AcDbCircle
 10
1.1573772211
 20
-30.1239952578
 30
0.0
 40
0.0150000000000001
100
AcDbArc
 50
270.0
 51
0.0
  0
LINE
  5
207
330
1F
100
AcDbEntity
  8
0
  6
Continuous
 62
     7
370
    30
100
AcDbLine
 10
1.1573772319
 20
-30.1389951791
 30
0.0
 11
1.0573772404
 21
-30.1389951791
 31
0.0
  0
ARC
  5
208
330
1F
100
AcDbEntity
  8
0
  6
Continuous
 62
     7
370
    30
100
AcDbCircle
 10
1.0573772211
 20
-30.1239952578
 30
0.0
 40
0.0149999999999999
100
AcDbArc
 50
180.0
 51
270.0
  0
LINE
  5
209
330
1F
100
AcDbEntity
  8
0
  6
Continuous
 62
     7
370
    30
100
AcDbLine
 10
1.042377227
 20
-30.1239951657
 30
0.0
 11
1.042377227
 21
-29.8419953834
 31
0.0
  0
ARC
  5
20A
330
1F
100
AcDbEntity
  8
0
  6
Continuous
 62
     7
370
    30
100
AcDbCircle
 10
1.0273772211
 20
-29.8419952578
 30
0.0
 40
0.0150000000000041
100
AcDbArc
 50
0.0
 51
90.0
  0
LINE
  5
20B
330
1F
100
AcDbEntity
  8
0
  6
Continuous
 62
     7
370
    30
100
AcDbLine
 10
1.0273772137
 20
-29.82699537
 30
0.0
 11
0.9559091326
 21
-29.82699537
 31
0.0
  0
ARC
  5
20C
330
1F
100
AcDbEntity
  8
0
  6
Continuous
 62
     7
370
    30
100
AcDbCircle
 10
0.9559091837
 20
-29.8119952578
 30
0.0
 40
0.0150000000000013
100
AcDbArc
 50
225.0
 51
270.0
  0
LINE
  5
20D
330
1F
100
AcDbEntity
  8
0
  6
Continuous
 62
     7
370
    30
100
AcDbLine
 10
0.9453026151
 20
-29.8226018741
 30
0.0
 11
0.8915193964
 21
-29.7688186554
 31
0.0
  0
ARC
  5
20E
330
1F
100
AcDbEntity
  8
0
  6
Continuous
 62
     7
370
    30
100
AcDbCircle
 10
0.8773772211
 20
-29.7829607699
 30
0.0
 40
0.020000000000001
100
AcDbArc
 50
45.0
 51
180.0
  0
LINE
  5
20F
330
1F
100
AcDbEntity
  8
0
  6
Continuous
 62
     7
370
    30
100
AcDbLine
 10
0.8573772575
 20
-29.7829606787
 30
0.0
 11
0.8573772575
 21
-30.0019951351
 31
0.0
  0
ARC
  5
210
330
1F
100
AcDbEntity
  8
0
  6
Continuous
 62
     7
370
    30
100
AcDbCircle
 10
0.8723772211
 20
-30.0019952578
 30
0.0
 40
0.0149999999999999
100
AcDbArc
 50
180.0
 51
270.0
  0
LINE
  5
211
330
1F
100
AcDbEntity
  8
0
  6
Continuous
 62
     7
370
    30
100
AcDbLine
 10
0.8723772709
 20
-30.0169951484
 30
0.0
 11
0.905377183
 21
-30.0169951484
 31
0.0
  0
ARC
  5
212
330
1F
100
AcDbEntity
  8
0
  6
Continuous
 62
     7
370
    30
100
AcDbCircle
 10
0.9053772211
 20
-30.0319952578
 30
0.0
 40
0.0150000000000041
100
AcDbArc
 50
0.0
 51
90.0
  0
LINE
  5
213
330
1F
100
AcDbEntity
  8
0
  6
Continuous
 62
     7
370
    30
100
AcDbLine
 10
0.9203771964
 20
-30.0319951618
 30
0.0
 11
0.9203771964
 21
-30.0639951122
 31
0.0
  0
ARC
  5
214
330
1F
100
AcDbEntity
  8
0
  6
Continuous
 62
     7
370
    30
100
AcDbCircle
 10
0.9053772211
 20
-30.0639952578
 30
0.0
 40
0.0150000000000006
100
AcDbArc
 50
270.0
 51
0.0
  0
LINE
  5
215
330
1F
100
AcDbEntity
  8
0
  6
Continuous
 62
     7
370
    30
100
AcDbLine
 10
0.905377183
 20
-30.0789951255
 30
0.0
 11
0.8723772709
 21
-30.0789951255
 31
0.0
  0
ARC
  5
216
330
1F
100
AcDbEntity
  8
0
  6
Continuous
 62
     7
370
    30
100
AcDbCircle
 10
0.8723772211
 20
-30.0939952578
 30
0.0
 40
0.0150000000000006
100
AcDbArc
 50
90.0
 51
180.0
  0
LINE
  5
217
330
1F
100
AcDbEntity
  8
0
  6
Continuous
 62
     7
370
    30
100
AcDbLine
 10
0.8573772575
 20
-30.0939951389
 30
0.0
 11
0.8573772575
 21
-30.6249953781
 31
0.0
  0
ARC
  5
218
330
1F
100
AcDbEntity
  8
0
  6
Continuous
 62
     7
370
    30
100
AcDbCircle
 10
0.8423772211
 20
-30.6249952578
 30
0.0
 40
0.0150000000000006
100
AcDbArc
 50
270.0
 51
0.0
  0
LINE
  5
219
330
1F
100
AcDbEntity
  8
0
  6
Continuous
 62
     7
370
    30
100
AcDbLine
 10
0.8423772441
 20
-30.6399953915
 30
0.0
 11
0.8103772938
 21
-30.6399953915
 31
0.0
  0
ARC
  5
21A
330
1F
100
AcDbEntity
  8
0
  6
Continuous
 62
     7
370
    30
100
AcDbCircle
 10
0.8103772211
 20
-30.6249952578
 30
0.0
 40
0.0150000000000006
100
AcDbArc
 50
180.0
 51
270.0
  0
LINE
  5
21B
330
1F
100
AcDbEntity
  8
0
  6
Continuous
 62
     7
370
    30
100
AcDbLine
 10
0.8103772938
 20
-29.0149953103
 30
0.0
 11
0.8423772441
 21
-29.0149953103
 31
0.0
  0
ARC
  5
21C
330
1F
100
AcDbEntity
  8
0
  6
Continuous
 62
     7
370
    30
100
AcDbCircle
 10
0.8423772211
 20
-29.0299952578
 30
0.0
 40
0.0150000000000041
100
AcDbArc
 50
0.0
 51
90.0
  0
LINE
  5
21D
330
1F
100
AcDbEntity
  8
0
  6
Continuous
 62
     7
370
    30
100
AcDbLine
 10
0.8573772575
 20
-29.0299953237
 30
0.0
 11
0.8573772575
 21
-29.6407821878
 31
0.0
  0
ARC
  5
21E
330
1F
100
AcDbEntity
  8
0
  6
Continuous
 62
     7
370
    30
100
AcDbCircle
 10
0.8723772211
 20
-29.6407820543
 30
0.0
 40
0.0150000000000013
100
AcDbArc
 50
180.0
 51
225.0
  0
LINE
  5
21F
330
1F
100
AcDbEntity
  8
0
  6
Continuous
 62
     7
370
    30
100
AcDbLine
 10
0.8617706068
 20
-29.6513887053
 30
0.0
 11
0.9709837984
 21
-29.760601897
 31
0.0
  0
ARC
  5
220
330
1F
100
AcDbEntity
  8
0
  6
Continuous
 62
     7
370
    30
100
AcDbCircle
 10
0.9815904246
 20
-29.7499952578
 30
0.0
 40
0.014999999999999
100
AcDbArc
 50
225.0
 51
270.0
  0
LINE
  5
221
330
1F
100
AcDbEntity
  8
0
  6
Continuous
 62
     7
370
    30
100
AcDbLine
 10
0.9815904626
 20
-29.7649953929
 30
0.0
 11
1.4013772198
 21
-29.7649953929
 31
0.0
  0
ARC
  5
222
330
1F
100
AcDbEntity
  8
0
  6
Continuous
 62
     7
370
    30
100
AcDbCircle
 10
1.4013772211
 20
-29.7799952578
 30
0.0
 40
0.0150000000000041
100
AcDbArc
 50
0.0
 51
90.0
  0
LINE
  5
223
330
1F
100
AcDbEntity
  8
0
  6
Continuous
 62
     7
370
    30
100
AcDbLine
 10
1.4163772332
 20
-29.779995113
 30
0.0
 11
1.4163772332
 21
-29.8119953566
 31
0.0
  0
ARC
  5
224
330
1F
100
AcDbEntity
  8
0
  6
Continuous
 62
     7
370
    30
100
AcDbCircle
 10
1.4013772211
 20
-29.8119952578
 30
0.0
 40
0.0150000000000006
100
AcDbArc
 50
270.0
 51
0.0
  0
LINE
  5
225
330
1F
100
AcDbEntity
  8
0
  6
Continuous
 62
     7
370
    30
100
AcDbLine
 10
1.4013772198
 20
-29.82699537
 30
0.0
 11
1.1193772175
 21
-29.82699537
 31
0.0
  0
ARC
  5
226
330
1F
100
AcDbEntity
  8
0
  6
Continuous
 62
     7
370
    30
100
AcDbCircle
 10
1.1193772211
 20
-29.8419952578
 30
0.0
 40
0.0150000000000041
100
AcDbArc
 50
90.0
 51
180.0
  0
LINE
  5
227
330
1F
100
AcDbEntity
  8
0
  6
Continuous
 62
     7
370
    30
100
AcDbLine
 10
1.1043772041
 20
-29.8419953834
 30
0.0
 11
1.1043772041
 21
-29.9369952726
 31
0.0
  0
ARC
  5
228
330
1F
100
AcDbEntity
  8
0
  6
Continuous
 62
     7
370
    30
100
AcDbCircle
 10
1.1193772211
 20
-29.9369952578
 30
0.0
 40
0.0149999999999999
100
AcDbArc
 50
180.0
 51
270.0
  0
LINE
  5
229
330
1F
100
AcDbEntity
  8
0
  6
Continuous
 62
     7
370
    30
100
AcDbLine
 10
1.1193772175
 20
-29.951995286
 30
0.0
 11
1.1194391101
 21
-29.951995286
 31
0.0
  0
LINE
  5
22A
330
1F
100
AcDbEntity
  8
0
  6
Continuous
 62
     7
370
    30
100
AcDbLine
 10
1.6043772348
 20
-29.951995286
 30
0.0
 11
2.4013772215
 21
-29.951995286
 31
0.0
  0
ARC
  5
22B
330
1F
100
AcDbEntity
  8
0
  6
Continuous
 62
     7
370
    30
100
AcDbCircle
 10
2.4013772211
 20
-29.9369952578
 30
0.0
 40
0.0149999999999997
100
AcDbArc
 50
270.0
 51
0.0
  0
LINE
  5
22C
330
1F
100
AcDbEntity
  8
0
  6
Continuous
 62
     7
370
    30
100
AcDbLine
 10
2.4163772211
 20
-29.9369952726
 30
0.0
 11
2.4163772211
 21
-29.8419953834
 31
0.0
  0
ARC
  5
22D
330
1F
100
AcDbEntity
  8
0
  6
Continuous
 62
     7
370
    30
100
AcDbCircle
 10
2.4013772211
 20
-29.8419952578
 30
0.0
 40
0.0150000000000041
100
AcDbArc
 50
0.0
 51
90.0
  0
LINE
  5
22E
330
1F
100
AcDbEntity
  8
0
  6
Continuous
 62
     7
370
    30
100
AcDbLine
 10
2.4013772215
 20
-29.82699537
 30
0.0
 11
2.3063772177
 21
-29.82699537
 31
0.0
  0
ARC
  5
22F
330
1F
100
AcDbEntity
  8
0
  6
Continuous
 62
     7
370
    30
100
AcDbCircle
 10
2.3063772211
 20
-29.8119952578
 30
0.0
 40
0.0150000000000006
100
AcDbArc
 50
180.0
 51
270.0
  0
LINE
  5
230
330
1F
100
AcDbEntity
  8
0
  6
Continuous
 62
     7
370
    30
100
AcDbLine
 10
2.2913772226
 20
-29.8119953566
 30
0.0
 11
2.2913772226
 21
-29.779995113
 31
0.0
  0
ARC
  5
231
330
1F
100
AcDbEntity
  8
0
  6
Continuous
 62
     7
370
    30
100
AcDbCircle
 10
0.8103772211
 20
-29.0299952578
 30
0.0
 40
0.0150000000000041
100
AcDbArc
 50
90.0
 51
180.0
  0
LINE
  5
232
330
1F
100
AcDbEntity
  8
0
  6
Continuous
 62
     7
370
    30
100
AcDbLine
 10
0.7953772804
 20
-30.6249953781
 30
0.0
 11
0.7953772804
 21
-29.0299953237
 31
0.0
  0
LINE
  5
233
330
1F
100
AcDbEntity
  8
0
  6
Continuous
 62
     7
370
    30
100
AcDbLine
 10
1.2543771913
 20
-30.0749952784
 30
0.0
 11
1.5793772369
 21
-30.0749952784
 31
0.0
  0
LINE
  5
234
330
1F
100
AcDbEntity
  8
0
  6
Continuous
 62
     7
370
    30
100
AcDbLine
 10
1.2543771913
 20
-30.0919952154
 30
0.0
 11
1.5793772369
 21
-30.0919952154
 31
0.0
  0
LINE
  5
235
330
1F
100
AcDbEntity
  8
0
  6
Continuous
 62
     7
370
    30
100
AcDbLine
 10
1.4318772275
 20
-30.1319951533
 30
0.0
 11
1.4018772007
 21
-30.1319951533
 31
0.0
  0
LINE
  5
236
330
1F
100
AcDbEntity
  8
0
  6
Continuous
 62
     7
370
    30
100
AcDbLine
 10
1.4018772007
 20
-30.1319951533
 30
0.0
 11
1.4018772007
 21
-30.1819952957
 31
0.0
  0
LINE
  5
237
330
1F
100
AcDbEntity
  8
0
  6
Continuous
 62
     7
370
    30
100
AcDbLine
 10
1.3447084411
 20
-30.1819952957
 30
0.0
 11
1.3447084411
 21
-30.0919952154
 31
0.0
  0
LINE
  5
238
330
1F
100
AcDbEntity
  8
0
  6
Continuous
 62
     7
370
    30
100
AcDbLine
 10
1.4890459871
 20
-30.1819952957
 30
0.0
 11
1.4890459871
 21
-30.0919952154
 31
0.0
  0
LINE
  5
239
330
1F
100
AcDbEntity
  8
0
  6
Continuous
 62
     7
370
    30
100
AcDbLine
 10
1.4318772275
 20
-30.1819952957
 30
0.0
 11
1.4890459871
 21
-30.1819952957
 31
0.0
  0
LINE
  5
23A
330
1F
100
AcDbEntity
  8
0
  6
Continuous
 62
     7
370
    30
100
AcDbLine
 10
1.4318772275
 20
-30.1319951533
 30
0.0
 11
1.4318772275
 21
-30.1819952957
 31
0.0
  0
LINE
  5
23B
330
1F
100
AcDbEntity
  8
0
  6
Continuous
 62
     7
370
    30
100
AcDbLine
 10
1.3447084411
 20
-30.1819952957
 30
0.0
 11
1.4018772007
 21
-30.1819952957
 31
0.0
  0
LINE
  5
23C
330
1F
100
AcDbEntity
  8
0
  6
Continuous
 62
     7
370
    30
100
AcDbLine
 10
1.2725396682
 20
-30.1819952957
 30
0.0
 11
1.2725396682
 21
-30.0919952154
 31
0.0
  0
LINE
  5
23D
330
1F
100
AcDbEntity
  8
0
  6
Continuous
 62
     7
370
    30
100
AcDbLine
 10
1.2725396682
 20
-30.1819952957
 30
0.0
 11
1.3447084411
 21
-30.1819952957
 31
0.0
  0
LINE
  5
23E
330
1F
100
AcDbEntity
  8
0
  6
Continuous
 62
     7
370
    30
100
AcDbLine
 10
1.56121476
 20
-30.1819952957
 30
0.0
 11
1.56121476
 21
-30.0919952154
 31
0.0
  0
LINE
  5
23F
330
1F
100
AcDbEntity
  8
0
  6
Continuous
 62
     7
370
    30
100
AcDbLine
 10
1.4890459871
 20
-30.1819952957
 30
0.0
 11
1.56121476
 21
-30.1819952957
 31
0.0
  0
LINE
  5
240
330
1F
100
AcDbEntity
  8
0
  6
Continuous
 62
     7
370
    30
100
AcDbLine
 10
1.4168772141
 20
-30.02147635
 30
0.0
 11
1.3668772184
 21
-30.02147635
 31
0.0
  0
LINE
  5
241
330
1F
100
AcDbEntity
  8
0
  6
Continuous
 62
     7
370
    30
100
AcDbLine
 10
1.4668772098
 20
-30.02147635
 30
0.0
 11
1.4168772141
 21
-30.02147635
 31
0.0
  0
LINE
  5
242
330
1F
100
AcDbEntity
  8
0
  6
Continuous
 62
     7
370
    30
100
AcDbLine
 10
1.4168772141
 20
-30.0705067436
 30
0.0
 11
1.3478772112
 21
-30.0705067436
 31
0.0
  0
LINE
  5
243
330
1F
100
AcDbEntity
  8
0
  6
Continuous
 62
     7
370
    30
100
AcDbLine
 10
1.485877217
 20
-30.0705067436
 30
0.0
 11
1.4168772141
 21
-30.0705067436
 31
0.0
  0
LINE
  5
244
330
1F
100
AcDbEntity
  8
0
  6
Continuous
 62
     7
370
    30
100
AcDbLine
 10
1.4168772141
 20
-30.0595370837
 30
0.0
 11
1.3668772184
 21
-30.0595370837
 31
0.0
  0
LINE
  5
245
330
1F
100
AcDbEntity
  8
0
  6
Continuous
 62
     7
370
    30
100
AcDbLine
 10
1.4668772098
 20
-30.0595370837
 30
0.0
 11
1.4168772141
 21
-30.0595370837
 31
0.0
  0
LINE
  5
246
330
1F
100
AcDbEntity
  8
0
  6
Continuous
 62
     7
370
    30
100
AcDbLine
 10
1.4168772141
 20
-29.7665066288
 30
0.0
 11
1.407939304
 21
-29.7665066288
 31
0.0
  0
LINE
  5
247
330
1F
100
AcDbEntity
  8
0
  6
Continuous
 62
     7
370
    30
100
AcDbLine
 10
1.485877217
 20
-29.7665066288
 30
0.0
 11
1.4168772141
 21
-29.7665066288
 31
0.0
  0
LINE
  5
248
330
1F
100
AcDbEntity
  8
0
  6
Continuous
 62
     7
370
    30
100
AcDbLine
 10
1.4168772141
 20
-29.765506667
 30
0.0
 11
1.4052609816
 21
-29.765506667
 31
0.0
  0
LINE
  5
249
330
1F
100
AcDbEntity
  8
0
  6
Continuous
 62
     7
370
    30
100
AcDbLine
 10
1.485877217
 20
-29.765506667
 30
0.0
 11
1.4168772141
 21
-29.765506667
 31
0.0
  0
LINE
  5
24A
330
1F
100
AcDbEntity
  8
0
  6
Continuous
 62
     7
370
    30
100
AcDbLine
 10
1.4668772098
 20
-29.7774762887
 30
0.0
 11
1.4168772141
 21
-29.7774762887
 31
0.0
  0
LINE
  5
24B
330
1F
100
AcDbEntity
  8
0
  6
Continuous
 62
     7
370
    30
100
AcDbLine
 10
1.4168772141
 20
-29.7545370071
 30
0.0
 11
1.3668772184
 21
-29.7545370071
 31
0.0
  0
LINE
  5
24C
330
1F
100
AcDbEntity
  8
0
  6
Continuous
 62
     7
370
    30
100
AcDbLine
 10
1.4668772098
 20
-29.7545370071
 30
0.0
 11
1.4168772141
 21
-29.7545370071
 31
0.0
  0
LINE
  5
24D
330
1F
100
AcDbEntity
  8
0
  6
Continuous
 62
     7
370
    30
100
AcDbLine
 10
1.4168772141
 20
-29.8275066441
 30
0.0
 11
1.3478772112
 21
-29.8275066441
 31
0.0
  0
LINE
  5
24E
330
1F
100
AcDbEntity
  8
0
  6
Continuous
 62
     7
370
    30
100
AcDbLine
 10
1.485877217
 20
-29.8275066441
 30
0.0
 11
1.4168772141
 21
-29.8275066441
 31
0.0
  0
LINE
  5
24F
330
1F
100
AcDbEntity
  8
0
  6
Continuous
 62
     7
370
    30
100
AcDbLine
 10
1.4168772141
 20
-29.8265066823
 30
0.0
 11
1.4051740826
 21
-29.8265066823
 31
0.0
  0
LINE
  5
250
330
1F
100
AcDbEntity
  8
0
  6
Continuous
 62
     7
370
    30
100
AcDbLine
 10
1.485877217
 20
-29.8265066823
 30
0.0
 11
1.4168772141
 21
-29.8265066823
 31
0.0
  0
LINE
  5
251
330
1F
100
AcDbEntity
  8
0
  6
Continuous
 62
     7
370
    30
100
AcDbLine
 10
1.4668772098
 20
-29.8155370224
 30
0.0
 11
1.4168772141
 21
-29.8155370224
 31
0.0
  0
LINE
  5
252
330
1F
100
AcDbEntity
  8
0
  6
Continuous
 62
     7
370
    30
100
AcDbLine
 10
1.4168772141
 20
-29.838476304
 30
0.0
 11
1.3668772184
 21
-29.838476304
 31
0.0
  0
LINE
  5
253
330
1F
100
AcDbEntity
  8
0
  6
Continuous
 62
     7
370
    30
100
AcDbLine
 10
1.4668772098
 20
-29.838476304
 30
0.0
 11
1.4168772141
 21
-29.838476304
 31
0.0
  0
LINE
  5
254
330
1F
100
AcDbEntity
  8
0
  6
Continuous
 62
     7
370
    30
100
AcDbLine
 10
1.4168772141
 20
-29.7055069068
 30
0.0
 11
1.3478772112
 21
-29.7055069068
 31
0.0
  0
LINE
  5
255
330
1F
100
AcDbEntity
  8
0
  6
Continuous
 62
     7
370
    30
100
AcDbLine
 10
1.485877217
 20
-29.7055069068
 30
0.0
 11
1.4168772141
 21
-29.7055069068
 31
0.0
  0
LINE
  5
256
330
1F
100
AcDbEntity
  8
0
  6
Continuous
 62
     7
370
    30
100
AcDbLine
 10
1.4168772141
 20
-29.7045066517
 30
0.0
 11
1.3478772112
 21
-29.7045066517
 31
0.0
  0
LINE
  5
257
330
1F
100
AcDbEntity
  8
0
  6
Continuous
 62
     7
370
    30
100
AcDbLine
 10
1.485877217
 20
-29.7045066517
 30
0.0
 11
1.4168772141
 21
-29.7045066517
 31
0.0
  0
LINE
  5
258
330
1F
100
AcDbEntity
  8
0
  6
Continuous
 62
     7
370
    30
100
AcDbLine
 10
1.4168772141
 20
-29.7164762734
 30
0.0
 11
1.3668772184
 21
-29.7164762734
 31
0.0
  0
LINE
  5
259
330
1F
100
AcDbEntity
  8
0
  6
Continuous
 62
     7
370
    30
100
AcDbLine
 10
1.4668772098
 20
-29.7164762734
 30
0.0
 11
1.4168772141
 21
-29.7164762734
 31
0.0
  0
LINE
  5
25A
330
1F
100
AcDbEntity
  8
0
  6
Continuous
 62
     7
370
    30
100
AcDbLine
 10
1.4168772141
 20
-29.6935369917
 30
0.0
 11
1.3668772184
 21
-29.6935369917
 31
0.0
  0
LINE
  5
25B
330
1F
100
AcDbEntity
  8
0
  6
Continuous
 62
     7
370
    30
100
AcDbLine
 10
1.4668772098
 20
-29.6935369917
 30
0.0
 11
1.4168772141
 21
-29.6935369917
 31
0.0
  0
LINE
  5
25C
330
1F
100
AcDbEntity
  8
0
  6
Continuous
 62
     7
370
    30
100
AcDbLine
 10
1.4168772141
 20
-29.6715976718
 30
0.0
 11
1.4668772098
 21
-29.6715976718
 31
0.0
  0
LINE
  5
25D
330
1F
100
AcDbEntity
  8
0
  6
Continuous
 62
     7
370
    30
100
AcDbLine
 10
1.3668772184
 20
-29.6715976718
 30
0.0
 11
1.4168772141
 21
-29.6715976718
 31
0.0
  0
LINE
  5
25E
330
1F
100
AcDbEntity
  8
0
  6
Continuous
 62
     7
370
    30
100
AcDbLine
 10
1.5670636858
 20
-23.0379952371
 30
0.0
 11
1.2543771913
 21
-23.0379952371
 31
0.0
  0
LINE
  5
25F
330
1F
100
AcDbEntity
  8
0
  6
Continuous
 62
     7
370
    30
100
AcDbLine
 10
1.5793772369
 20
-23.0379952371
 30
0.0
 11
1.5670636858
 21
-23.0379952371
 31
0.0
  0
LINE
  5
260
330
1F
100
AcDbEntity
  8
0
  6
Continuous
 62
     7
370
    30
100
AcDbLine
 10
1.5670636858
 20
-23.0209953002
 30
0.0
 11
1.2543771913
 21
-23.0209953002
 31
0.0
  0
LINE
  5
261
330
1F
100
AcDbEntity
  8
0
  6
Continuous
 62
     7
370
    30
100
AcDbLine
 10
1.5793772369
 20
-23.0209953002
 30
0.0
 11
1.5670636858
 21
-23.0209953002
 31
0.0
  0
LINE
  5
262
330
1F
100
AcDbEntity
  8
0
  6
Continuous
 62
     7
370
    30
100
AcDbLine
 10
1.5048476712
 20
-22.9309952199
 30
0.0
 11
1.5048476712
 21
-23.0209953002
 31
0.0
  0
LINE
  5
263
330
1F
100
AcDbEntity
  8
0
  6
Continuous
 62
     7
370
    30
100
AcDbLine
 10
1.3617619841
 20
-22.9309952199
 30
0.0
 11
1.3617619841
 21
-23.0209953002
 31
0.0
  0
LINE
  5
264
330
1F
100
AcDbEntity
  8
0
  6
Continuous
 62
     7
370
    30
100
AcDbLine
 10
1.5048476712
 20
-22.9309952199
 30
0.0
 11
1.3617619841
 21
-22.9309952199
 31
0.0
  0
LINE
  5
265
330
1F
100
AcDbEntity
  8
0
  6
Continuous
 62
     7
370
    30
100
AcDbLine
 10
1.2737915271
 20
-22.9309952199
 30
0.0
 11
1.2737915271
 21
-23.0209953002
 31
0.0
  0
LINE
  5
266
330
1F
100
AcDbEntity
  8
0
  6
Continuous
 62
     7
370
    30
100
AcDbLine
 10
1.3617619841
 20
-22.9309952199
 30
0.0
 11
1.2737915271
 21
-22.9309952199
 31
0.0
  0
LINE
  5
267
330
1F
100
AcDbEntity
  8
0
  6
Continuous
 62
     7
370
    30
100
AcDbLine
 10
1.5599629012
 20
-22.9309952199
 30
0.0
 11
1.5381330667
 21
-22.9309952199
 31
0.0
  0
LINE
  5
268
330
1F
100
AcDbEntity
  8
0
  6
Continuous
 62
     7
370
    30
100
AcDbLine
 10
1.5599629012
 20
-22.9309952199
 30
0.0
 11
1.5599629012
 21
-23.0209953002
 31
0.0
  0
LINE
  5
269
330
1F
100
AcDbEntity
  8
0
  6
Continuous
 62
     7
370
    30
100
AcDbLine
 10
1.526677579
 20
-22.9809953622
 30
0.0
 11
1.526677579
 21
-22.9309952199
 31
0.0
  0
LINE
  5
26A
330
1F
100
AcDbEntity
  8
0
  6
Continuous
 62
     7
370
    30
100
AcDbLine
 10
1.526677579
 20
-22.9809953622
 30
0.0
 11
1.5381330667
 21
-22.9809953622
 31
0.0
  0
LINE
  5
26B
330
1F
100
AcDbEntity
  8
0
  6
Continuous
 62
     7
370
    30
100
AcDbLine
 10
1.5381330667
 20
-22.9809953622
 30
0.0
 11
1.5381330667
 21
-22.9309952199
 31
0.0
  0
LINE
  5
26C
330
1F
100
AcDbEntity
  8
0
  6
Continuous
 62
     7
370
    30
100
AcDbLine
 10
1.526677579
 20
-22.9309952199
 30
0.0
 11
1.5048476712
 21
-22.9309952199
 31
0.0
  0
LINE
  5
26D
330
1F
100
AcDbEntity
  8
0
  6
Continuous
 62
     7
370
    30
100
AcDbLine
 10
1.3478772112
 20
-23.4074836088
 30
0.0
 11
1.485877217
 21
-23.4074836088
 31
0.0
  0
LINE
  5
26E
330
1F
100
AcDbEntity
  8
0
  6
Continuous
 62
     7
370
    30
100
AcDbLine
 10
1.3478772112
 20
-23.4084838639
 30
0.0
 11
1.485877217
 21
-23.4084838639
 31
0.0
  0
LINE
  5
26F
330
1F
100
AcDbEntity
  8
0
  6
Continuous
 62
     7
370
    30
100
AcDbLine
 10
1.4668772098
 20
-23.3965142421
 30
0.0
 11
1.3668772184
 21
-23.3965142421
 31
0.0
  0
LINE
  5
270
330
1F
100
AcDbEntity
  8
0
  6
Continuous
 62
     7
370
    30
100
AcDbLine
 10
1.4668772098
 20
-23.4194535238
 30
0.0
 11
1.3668772184
 21
-23.4194535238
 31
0.0
  0
LINE
  5
271
330
1F
100
AcDbEntity
  8
0
  6
Continuous
 62
     7
370
    30
100
AcDbLine
 10
1.3478772112
 20
-23.0424837719
 30
0.0
 11
1.485877217
 21
-23.0424837719
 31
0.0
  0
LINE
  5
272
330
1F
100
AcDbEntity
  8
0
  6
Continuous
 62
     7
370
    30
100
AcDbLine
 10
1.3478772112
 20
-23.2854838714
 30
0.0
 11
1.485877217
 21
-23.2854838714
 31
0.0
  0
LINE
  5
273
330
1F
100
AcDbEntity
  8
0
  6
Continuous
 62
     7
370
    30
100
AcDbLine
 10
1.4051740826
 20
-23.2864838332
 30
0.0
 11
1.485877217
 21
-23.2864838332
 31
0.0
  0
LINE
  5
274
330
1F
100
AcDbEntity
  8
0
  6
Continuous
 62
     7
370
    30
100
AcDbLine
 10
1.407939304
 20
-23.3464838868
 30
0.0
 11
1.485877217
 21
-23.3464838868
 31
0.0
  0
LINE
  5
275
330
1F
100
AcDbEntity
  8
0
  6
Continuous
 62
     7
370
    30
100
AcDbLine
 10
1.4052609816
 20
-23.3474838485
 30
0.0
 11
1.485877217
 21
-23.3474838485
 31
0.0
  0
LINE
  5
276
330
1F
100
AcDbEntity
  8
0
  6
Continuous
 62
     7
370
    30
100
AcDbLine
 10
1.4159530781
 20
-23.2974534932
 30
0.0
 11
1.4668772098
 21
-23.2974534932
 31
0.0
  0
LINE
  5
277
330
1F
100
AcDbEntity
  8
0
  6
Continuous
 62
     7
370
    30
100
AcDbLine
 10
1.4668772098
 20
-23.3584535085
 30
0.0
 11
1.3668772184
 21
-23.3584535085
 31
0.0
  0
LINE
  5
278
330
1F
100
AcDbEntity
  8
0
  6
Continuous
 62
     7
370
    30
100
AcDbLine
 10
1.4668772098
 20
-23.0534534319
 30
0.0
 11
1.3668772184
 21
-23.0534534319
 31
0.0
  0
LINE
  5
279
330
1F
100
AcDbEntity
  8
0
  6
Continuous
 62
     7
370
    30
100
AcDbLine
 10
1.4668772098
 20
-23.2745142115
 30
0.0
 11
1.3668772184
 21
-23.2745142115
 31
0.0
  0
LINE
  5
27A
330
1F
100
AcDbEntity
  8
0
  6
Continuous
 62
     7
370
    30
100
AcDbLine
 10
1.4161642024
 20
-23.3355142268
 30
0.0
 11
1.4668772098
 21
-23.3355142268
 31
0.0
  0
LINE
  5
27B
330
1F
100
AcDbEntity
  8
0
  6
Continuous
 62
     7
370
    30
100
AcDbLine
 10
1.4668772098
 20
-23.0915141655
 30
0.0
 11
1.3668772184
 21
-23.0915141655
 31
0.0
  0
LINE
  5
27C
330
1F
100
AcDbEntity
  8
0
  6
Continuous
 62
     7
370
    30
100
AcDbLine
 10
1.4668772098
 20
-23.4413928437
 30
0.0
 11
1.3668772184
 21
-23.4413928437
 31
0.0
  0
LINE
  5
27D
330
1F
100
AcDbEntity
  8
0
  6
Continuous
 62
     7
370
    30
100
AcDbLine
 10
1.5381330667
 20
-22.9309952199
 30
0.0
 11
1.526677579
 21
-22.9309952199
 31
0.0
  0
LINE
  5
27E
330
1F
100
AcDbEntity
  8
0
  6
Continuous
 62
     7
370
    30
100
AcDbLine
 10
1.7137521979
 20
-23.0379952371
 30
0.0
 11
1.7137521979
 21
-23.0879953795
 31
0.0
  0
LINE
  5
27F
330
1F
100
AcDbEntity
  8
0
  6
Continuous
 62
     7
370
    30
100
AcDbLine
 10
1.120002157
 20
-23.0879953795
 30
0.0
 11
1.3668772184
 21
-23.0879953795
 31
0.0
  0
LINE
  5
280
330
1F
100
AcDbEntity
  8
0
  6
Continuous
 62
     7
370
    30
100
AcDbLine
 10
1.4668772098
 20
-23.0879953795
 30
0.0
 11
1.7137521979
 21
-23.0879953795
 31
0.0
  0
LINE
  5
281
330
1F
100
AcDbEntity
  8
0
  6
Continuous
 62
     7
370
    30
100
AcDbLine
 10
1.120002157
 20
-23.0379952371
 30
0.0
 11
1.2543771913
 21
-23.0379952371
 31
0.0
  0
LINE
  5
282
330
1F
100
AcDbEntity
  8
0
  6
Continuous
 62
     7
370
    30
100
AcDbLine
 10
1.5793772369
 20
-23.0379952371
 30
0.0
 11
1.7137521979
 21
-23.0379952371
 31
0.0
  0
LINE
  5
283
330
1F
100
AcDbEntity
  8
0
  6
Continuous
 62
     7
370
    30
100
AcDbLine
 10
1.120002157
 20
-23.0379952371
 30
0.0
 11
1.120002157
 21
-23.0879953795
 31
0.0
  0
LINE
  5
284
330
1F
100
AcDbEntity
  8
0
  6
Continuous
 62
     7
370
    30
100
AcDbLine
 10
1.7137521979
 20
-30.0749952784
 30
0.0
 11
1.5793772369
 21
-30.0749952784
 31
0.0
  0
LINE
  5
285
330
1F
100
AcDbEntity
  8
0
  6
Continuous
 62
     7
370
    30
100
AcDbLine
 10
1.2543771913
 20
-30.0749952784
 30
0.0
 11
1.120002157
 21
-30.0749952784
 31
0.0
  0
LINE
  5
286
330
1F
100
AcDbEntity
  8
0
  6
Continuous
 62
     7
370
    30
100
AcDbLine
 10
1.7137521979
 20
-30.0749952784
 30
0.0
 11
1.7137521979
 21
-30.024995136
 31
0.0
  0
LINE
  5
287
330
1F
100
AcDbEntity
  8
0
  6
Continuous
 62
     7
370
    30
100
AcDbLine
 10
1.120002157
 20
-30.0749952784
 30
0.0
 11
1.120002157
 21
-30.024995136
 31
0.0
  0
LINE
  5
288
330
1F
100
AcDbEntity
  8
0
  6
Continuous
 62
     7
370
    30
100
AcDbLine
 10
1.7137521979
 20
-30.024995136
 30
0.0
 11
1.4668772098
 21
-30.024995136
 31
0.0
  0
LINE
  5
289
330
1F
100
AcDbEntity
  8
0
  6
Continuous
 62
     7
370
    30
100
AcDbLine
 10
1.3668772184
 20
-30.024995136
 30
0.0
 11
1.120002157
 21
-30.024995136
 31
0.0
  0
LINE
  5
28A
330
1F
100
AcDbEntity
  8
0
  6
Continuous
 62
     7
370
    30
100
AcDbLine
 10
2.4793772196
 20
-30.0208248642
 30
0.0
 11
2.4783772212
 21
-30.0208248642
 31
0.0
  0
LINE
  5
28B
330
1F
100
AcDbEntity
  8
0
  6
Continuous
 62
     7
370
    30
100
AcDbLine
 10
2.4139566733
 20
-30.0208248642
 30
0.0
 11
1.7937977599
 21
-30.0208248642
 31
0.0
  0
LINE
  5
28C
330
1F
100
AcDbEntity
  8
0
  6
Continuous
 62
     7
370
    30
100
AcDbLine
 10
1.7269566654
 20
-30.0208248642
 30
0.0
 11
1.7137521979
 21
-30.0208248642
 31
0.0
  0
LINE
  5
28D
330
1F
100
AcDbEntity
  8
0
  6
Continuous
 62
     7
370
    30
100
AcDbLine
 10
1.7137521979
 20
-30.0208248642
 30
0.0
 11
1.7137521979
 21
-30.024995136
 31
0.0
  0
LINE
  5
28E
330
1F
100
AcDbEntity
  8
0
  6
Continuous
 62
     7
370
    30
100
AcDbLine
 10
1.120002157
 20
-30.0208248642
 30
0.0
 11
1.1067977628
 21
-30.0208248642
 31
0.0
  0
LINE
  5
28F
330
1F
100
AcDbEntity
  8
0
  6
Continuous
 62
     7
370
    30
100
AcDbLine
 10
1.042377227
 20
-30.0208248642
 30
0.0
 11
0.9153882407
 21
-30.0208248642
 31
0.0
  0
LINE
  5
290
330
1F
100
AcDbEntity
  8
0
  6
Continuous
 62
     7
370
    30
100
AcDbLine
 10
2.4793772196
 20
-30.0199953271
 30
0.0
 11
2.4793772196
 21
-30.0208248642
 31
0.0
  0
LINE
  5
291
330
1F
100
AcDbEntity
  8
0
  6
Continuous
 62
     7
370
    30
100
AcDbLine
 10
1.120002157
 20
-30.024995136
 30
0.0
 11
1.120002157
 21
-30.0208248642
 31
0.0
  0
LINE
  5
292
330
1F
100
AcDbEntity
  8
0
  6
Continuous
 62
     7
370
    30
100
AcDbLine
 10
1.7137521979
 20
-23.0838708672
 30
0.0
 11
1.7293772241
 21
-23.0838708672
 31
0.0
  0
LINE
  5
293
330
1F
100
AcDbEntity
  8
0
  6
Continuous
 62
     7
370
    30
100
AcDbLine
 10
1.7913772012
 20
-23.0838708672
 30
0.0
 11
2.4163772211
 21
-23.0838708672
 31
0.0
  0
LINE
  5
294
330
1F
100
AcDbEntity
  8
0
  6
Continuous
 62
     7
370
    30
100
AcDbLine
 10
2.4783772212
 20
-23.0838708672
 30
0.0
 11
2.4793772196
 21
-23.0838708672
 31
0.0
  0
LINE
  5
295
330
1F
100
AcDbEntity
  8
0
  6
Continuous
 62
     7
370
    30
100
AcDbLine
 10
0.9200989729
 20
-23.0838708672
 30
0.0
 11
1.042377227
 21
-23.0838708672
 31
0.0
  0
LINE
  5
296
330
1F
100
AcDbEntity
  8
0
  6
Continuous
 62
     7
370
    30
100
AcDbLine
 10
1.1043772041
 20
-23.0838708672
 30
0.0
 11
1.120002157
 21
-23.0838708672
 31
0.0
  0
LINE
  5
297
330
1F
100
AcDbEntity
  8
0
  6
Continuous
 62
     7
370
    30
100
AcDbLine
 10
1.120002157
 20
-30.0291196484
 30
0.0
 11
1.1043772041
 21
-30.0291196484
 31
0.0
  0
LINE
  5
298
330
1F
100
AcDbEntity
  8
0
  6
Continuous
 62
     7
370
    30
100
AcDbLine
 10
1.042377227
 20
-30.0291196484
 30
0.0
 11
0.9200989729
 21
-30.0291196484
 31
0.0
  0
LINE
  5
299
330
1F
100
AcDbEntity
  8
0
  6
Continuous
 62
     7
370
    30
100
AcDbLine
 10
2.4793772196
 20
-30.0291196484
 30
0.0
 11
2.4783772212
 21
-30.0291196484
 31
0.0
  0
LINE
  5
29A
330
1F
100
AcDbEntity
  8
0
  6
Continuous
 62
     7
370
    30
100
AcDbLine
 10
2.4163772211
 20
-30.0291196484
 30
0.0
 11
1.7913772012
 21
-30.0291196484
 31
0.0
  0
LINE
  5
29B
330
1F
100
AcDbEntity
  8
0
  6
Continuous
 62
     7
370
    30
100
AcDbLine
 10
1.7293772241
 20
-30.0291196484
 30
0.0
 11
1.7137521979
 21
-30.0291196484
 31
0.0
  0
LINE
  5
29C
330
1F
100
AcDbEntity
  8
0
  6
Continuous
 62
     7
370
    30
100
AcDbLine
 10
1.7137521979
 20
-23.0921656513
 30
0.0
 11
1.7269566654
 21
-23.0921656513
 31
0.0
  0
LINE
  5
29D
330
1F
100
AcDbEntity
  8
0
  6
Continuous
 62
     7
370
    30
100
AcDbLine
 10
1.7937977599
 20
-23.0921656513
 30
0.0
 11
2.4139566733
 21
-23.0921656513
 31
0.0
  0
LINE
  5
29E
330
1F
100
AcDbEntity
  8
0
  6
Continuous
 62
     7
370
    30
100
AcDbLine
 10
2.4783772212
 20
-23.0921656513
 30
0.0
 11
2.4793772196
 21
-23.0921656513
 31
0.0
  0
LINE
  5
29F
330
1F
100
AcDbEntity
  8
0
  6
Continuous
 62
     7
370
    30
100
AcDbLine
 10
2.4793772196
 20
-23.0921656513
 30
0.0
 11
2.4793772196
 21
-23.0929951884
 31
0.0
  0
LINE
  5
2A0
330
1F
100
AcDbEntity
  8
0
  6
Continuous
 62
     7
370
    30
100
AcDbLine
 10
0.9153882407
 20
-23.0921656513
 30
0.0
 11
1.042377227
 21
-23.0921656513
 31
0.0
  0
LINE
  5
2A1
330
1F
100
AcDbEntity
  8
0
  6
Continuous
 62
     7
370
    30
100
AcDbLine
 10
1.1067977628
 20
-23.0921656513
 30
0.0
 11
1.120002157
 21
-23.0921656513
 31
0.0
  0
LINE
  5
2A2
330
1F
100
AcDbEntity
  8
0
  6
Continuous
 62
     7
370
    30
100
AcDbLine
 10
1.120002157
 20
-23.0921656513
 30
0.0
 11
1.120002157
 21
-23.0879953795
 31
0.0
  0
LINE
  5
2A3
330
1F
100
AcDbEntity
  8
0
  6
Continuous
 62
     7
370
    30
100
AcDbLine
 10
1.7137521979
 20
-23.0879953795
 30
0.0
 11
1.7137521979
 21
-23.0921656513
 31
0.0
  0
LINE
  5
2A4
330
1F
100
AcDbEntity
  8
0
  6
Continuous
 62
     7
370
    30
100
AcDbLine
 10
2.4793772196
 20
-23.0921656513
 30
0.0
 11
2.4793772196
 21
-23.0838708672
 31
0.0
  0
LINE
  5
2A5
330
1F
100
AcDbEntity
  8
0
  6
Continuous
 62
     7
370
    30
100
AcDbLine
 10
2.4793772196
 20
-30.0208248642
 30
0.0
 11
2.4793772196
 21
-30.0291196484
 31
0.0
  0
LINE
  5
2A6
330
1F
100
AcDbEntity
  8
0
  6
Continuous
 62
     7
370
    30
100
AcDbLine
 10
0.7953772804
 20
-29.8369952812
 30
0.0
 11
0.6363771972
 21
-29.8369952812
 31
0.0
  0
LINE
  5
2A7
330
1F
100
AcDbEntity
  8
0
  6
Continuous
 62
     7
370
    30
100
AcDbLine
 10
0.6363771972
 20
-29.8369952812
 30
0.0
 11
0.1668772476
 21
-29.0856382542
 31
0.0
  0
LINE
  5
2A8
330
1F
100
AcDbEntity
  8
0
  6
Continuous
 62
     7
370
    30
100
AcDbLine
 10
0.1668772476
 20
-29.0856382542
 30
0.0
 11
0.1668772476
 21
-24.0273522613
 31
0.0
  0
LINE
  5
2A9
330
1F
100
AcDbEntity
  8
0
  6
Continuous
 62
     7
370
    30
100
AcDbLine
 10
0.1668772476
 20
-24.0273522613
 30
0.0
 11
0.6363771972
 21
-23.2759952344
 31
0.0
  0
LINE
  5
2AA
330
1F
100
AcDbEntity
  8
0
  6
Continuous
 62
     7
370
    30
100
AcDbLine
 10
0.6363771972
 20
-23.2759952344
 30
0.0
 11
0.7953772804
 21
-23.2759952344
 31
0.0
  0
LINE
  5
2AB
330
1F
100
AcDbEntity
  8
0
  6
Continuous
 62
     7
370
    30
100
AcDbLine
 10
2.4793772196
 20
-23.0929951884
 30
0.0
 11
2.4793772196
 21
-26.3434187359
 31
0.0
  0
LINE
  5
2AC
330
1F
100
AcDbEntity
  8
0
  6
Continuous
 62
     7
370
    30
100
AcDbLine
 10
2.4793772196
 20
-26.7705717781
 30
0.0
 11
2.4793772196
 21
-30.0199953271
 31
0.0
  0
LWPOLYLINE
  5
2AD
330
1F
100
AcDbEntity
  8
0
  6
Continuous
 62
     7
370
    30
100
AcDbPolyline
 90
        3
 70
   128
 43
0.0
 10
1.9766272345
 20
-25.1795456844
 10
1.9811754253
 20
-25.135400701
 10
1.9766272345
 20
-25.1064447822
  0
LINE
  5
2AE
330
1F
100
AcDbEntity
  8
0
  6
Continuous
 62
     7
370
    30
100
AcDbLine
 10
1.807377213
 20
-23.4435945783
 30
0.0
 11
1.807377213
 21
-23.5894951328
 31
0.0
  0
ARC
  5
2AF
330
1F
100
AcDbEntity
  8
0
  6
Continuous
 62
     7
370
    30
100
AcDbCircle
 10
1.8383772211
 20
-23.3039952578
 30
0.0
 40
0.1430000000000007
100
AcDbArc
 50
282.5201657706
 51
257.4798342294
  0
LINE
  5
2B0
330
1F
100
AcDbEntity
  8
0
  6
Continuous
 62
     7
370
    30
100
AcDbLine
 10
1.8693772268
 20
-23.5894951328
 30
0.0
 11
1.8693772268
 21
-23.4435945783
 31
0.0
  0
LINE
  5
2B1
330
1F
100
AcDbEntity
  8
0
  6
Continuous
 62
     7
370
    30
100
AcDbLine
 10
1.807377213
 20
-26.8775946751
 30
0.0
 11
1.807377213
 21
-27.0234952663
 31
0.0
  0
LINE
  5
2B2
330
1F
100
AcDbEntity
  8
0
  6
Continuous
 62
     7
370
    30
100
AcDbLine
 10
1.8693772268
 20
-27.0234952663
 30
0.0
 11
1.8693772268
 21
-26.8775946751
 31
0.0
  0
LWPOLYLINE
  5
2B3
330
1F
100
AcDbEntity
  8
0
  6
Continuous
 62
     7
370
    30
100
AcDbPolyline
 90
        3
 70
   128
 43
0.0
 10
1.9766272345
 20
-28.6135457079
 10
1.9811754253
 20
-28.5694007245
 10
1.9766272345
 20
-28.5404448057
  0
ARC
  5
2B4
330
1F
100
AcDbEntity
  8
0
  6
Continuous
 62
     7
370
    30
100
AcDbCircle
 10
1.8383772211
 20
-26.7379952578
 30
0.0
 40
0.1429999999999972
100
AcDbArc
 50
282.5201657706
 51
257.4798342294
  0
LINE
  5
2B5
330
1F
100
AcDbEntity
  8
0
  6
Continuous
 62
     7
370
    30
100
AcDbLine
 10
1.5937656573
 20
-23.158995306
 30
0.0
 11
1.5937656573
 21
-23.272995349
 31
0.0
  0
LINE
  5
2B6
330
1F
100
AcDbEntity
  8
0
  6
Continuous
 62
     7
370
    30
100
AcDbLine
 10
1.2311191333
 20
-23.272995349
 30
0.0
 11
1.5937656573
 21
-23.272995349
 31
0.0
  0
LINE
  5
2B7
330
1F
100
AcDbEntity
  8
0
  6
Continuous
 62
     7
370
    30
100
AcDbLine
 10
1.2311191333
 20
-23.158995306
 30
0.0
 11
1.5937656573
 21
-23.158995306
 31
0.0
  0
LINE
  5
2B8
330
1F
100
AcDbEntity
  8
0
  6
Continuous
 62
     7
370
    30
100
AcDbLine
 10
1.6043772348
 20
-23.158995306
 30
0.0
 11
1.6043772348
 21
-23.272995349
 31
0.0
  0
LINE
  5
2B9
330
1F
100
AcDbEntity
  8
0
  6
Continuous
 62
     7
370
    30
100
AcDbLine
 10
1.5937656573
 20
-23.272995349
 30
0.0
 11
1.6043772348
 21
-23.272995349
 31
0.0
  0
LINE
  5
2BA
330
1F
100
AcDbEntity
  8
0
  6
Continuous
 62
     7
370
    30
100
AcDbLine
 10
1.5937656573
 20
-23.158995306
 30
0.0
 11
1.6043772348
 21
-23.158995306
 31
0.0
  0
LINE
  5
2BB
330
1F
100
AcDbEntity
  8
0
  6
Continuous
 62
     7
370
    30
100
AcDbLine
 10
1.1045111093
 20
-23.272995349
 30
0.0
 11
1.2311191333
 21
-23.272995349
 31
0.0
  0
LINE
  5
2BC
330
1F
100
AcDbEntity
  8
0
  6
Continuous
 62
     7
370
    30
100
AcDbLine
 10
1.1194555366
 20
-23.158995306
 30
0.0
 11
1.2311191333
 21
-23.158995306
 31
0.0
  0
LINE
  5
2BD
330
1F
100
AcDbEntity
  8
0
  6
Continuous
 62
     7
370
    30
100
AcDbLine
 10
1.5937656573
 20
-26.4059952622
 30
0.0
 11
1.5937656573
 21
-26.5199952571
 31
0.0
  0
LINE
  5
2BE
330
1F
100
AcDbEntity
  8
0
  6
Continuous
 62
     7
370
    30
100
AcDbLine
 10
1.2311191333
 20
-26.5199952571
 30
0.0
 11
1.5937656573
 21
-26.5199952571
 31
0.0
  0
LINE
  5
2BF
330
1F
100
AcDbEntity
  8
0
  6
Continuous
 62
     7
370
    30
100
AcDbLine
 10
1.2311191333
 20
-26.4059952622
 30
0.0
 11
1.5937656573
 21
-26.4059952622
 31
0.0
  0
LINE
  5
2C0
330
1F
100
AcDbEntity
  8
0
  6
Continuous
 62
     7
370
    30
100
AcDbLine
 10
1.6043772348
 20
-26.4059952622
 30
0.0
 11
1.6043772348
 21
-26.5199952571
 31
0.0
  0
LINE
  5
2C1
330
1F
100
AcDbEntity
  8
0
  6
Continuous
 62
     7
370
    30
100
AcDbLine
 10
1.5937656573
 20
-26.5199952571
 30
0.0
 11
1.6043772348
 21
-26.5199952571
 31
0.0
  0
LINE
  5
2C2
330
1F
100
AcDbEntity
  8
0
  6
Continuous
 62
     7
370
    30
100
AcDbLine
 10
1.5937656573
 20
-26.4059952622
 30
0.0
 11
1.6043772348
 21
-26.4059952622
 31
0.0
  0
LINE
  5
2C3
330
1F
100
AcDbEntity
  8
0
  6
Continuous
 62
     7
370
    30
100
AcDbLine
 10
1.1125495231
 20
-26.5199952571
 30
0.0
 11
1.2311191333
 21
-26.5199952571
 31
0.0
  0
LINE
  5
2C4
330
1F
100
AcDbEntity
  8
0
  6
Continuous
 62
     7
370
    30
100
AcDbLine
 10
1.1125495231
 20
-26.4059952622
 30
0.0
 11
1.2311191333
 21
-26.4059952622
 31
0.0
  0
LINE
  5
2C5
330
1F
100
AcDbEntity
  8
0
  6
Continuous
 62
     7
370
    30
100
AcDbLine
 10
1.5937656573
 20
-26.5929952584
 30
0.0
 11
1.5937656573
 21
-26.7069952533
 31
0.0
  0
LINE
  5
2C6
330
1F
100
AcDbEntity
  8
0
  6
Continuous
 62
     7
370
    30
100
AcDbLine
 10
1.2311191333
 20
-26.7069952533
 30
0.0
 11
1.5937656573
 21
-26.7069952533
 31
0.0
  0
LINE
  5
2C7
330
1F
100
AcDbEntity
  8
0
  6
Continuous
 62
     7
370
    30
100
AcDbLine
 10
1.2311191333
 20
-26.5929952584
 30
0.0
 11
1.5937656573
 21
-26.5929952584
 31
0.0
  0
LINE
  5
2C8
330
1F
100
AcDbEntity
  8
0
  6
Continuous
 62
     7
370
    30
100
AcDbLine
 10
1.6043772348
 20
-26.5929952584
 30
0.0
 11
1.6043772348
 21
-26.7069952533
 31
0.0
  0
LINE
  5
2C9
330
1F
100
AcDbEntity
  8
0
  6
Continuous
 62
     7
370
    30
100
AcDbLine
 10
1.5937656573
 20
-26.7069952533
 30
0.0
 11
1.6043772348
 21
-26.7069952533
 31
0.0
  0
LINE
  5
2CA
330
1F
100
AcDbEntity
  8
0
  6
Continuous
 62
     7
370
    30
100
AcDbLine
 10
1.5937656573
 20
-26.5929952584
 30
0.0
 11
1.6043772348
 21
-26.5929952584
 31
0.0
  0
LINE
  5
2CB
330
1F
100
AcDbEntity
  8
0
  6
Continuous
 62
     7
370
    30
100
AcDbLine
 10
1.1125495231
 20
-26.7069952533
 30
0.0
 11
1.2311191333
 21
-26.7069952533
 31
0.0
  0
LINE
  5
2CC
330
1F
100
AcDbEntity
  8
0
  6
Continuous
 62
     7
370
    30
100
AcDbLine
 10
1.1125495231
 20
-26.5929952584
 30
0.0
 11
1.2311191333
 21
-26.5929952584
 31
0.0
  0
LINE
  5
2CD
330
1F
100
AcDbEntity
  8
0
  6
Continuous
 62
     7
370
    30
100
AcDbLine
 10
1.5937656573
 20
-29.8399951665
 30
0.0
 11
1.5937656573
 21
-29.9539952096
 31
0.0
  0
LINE
  5
2CE
330
1F
100
AcDbEntity
  8
0
  6
Continuous
 62
     7
370
    30
100
AcDbLine
 10
1.2311191333
 20
-29.9539952096
 30
0.0
 11
1.5937656573
 21
-29.9539952096
 31
0.0
  0
LINE
  5
2CF
330
1F
100
AcDbEntity
  8
0
  6
Continuous
 62
     7
370
    30
100
AcDbLine
 10
1.2311191333
 20
-29.8399951665
 30
0.0
 11
1.5937656573
 21
-29.8399951665
 31
0.0
  0
LINE
  5
2D0
330
1F
100
AcDbEntity
  8
0
  6
Continuous
 62
     7
370
    30
100
AcDbLine
 10
1.6043772348
 20
-29.8399951665
 30
0.0
 11
1.6043772348
 21
-29.9539952096
 31
0.0
  0
LINE
  5
2D1
330
1F
100
AcDbEntity
  8
0
  6
Continuous
 62
     7
370
    30
100
AcDbLine
 10
1.5937656573
 20
-29.9539952096
 30
0.0
 11
1.6043772348
 21
-29.9539952096
 31
0.0
  0
LINE
  5
2D2
330
1F
100
AcDbEntity
  8
0
  6
Continuous
 62
     7
370
    30
100
AcDbLine
 10
1.5937656573
 20
-29.8399951665
 30
0.0
 11
1.6043772348
 21
-29.8399951665
 31
0.0
  0
LINE
  5
2D3
330
1F
100
AcDbEntity
  8
0
  6
Continuous
 62
     7
370
    30
100
AcDbLine
 10
1.1194555366
 20
-29.9539952096
 30
0.0
 11
1.2311191333
 21
-29.9539952096
 31
0.0
  0
LINE
  5
2D4
330
1F
100
AcDbEntity
  8
0
  6
Continuous
 62
     7
370
    30
100
AcDbLine
 10
1.1045111093
 20
-29.8399951665
 30
0.0
 11
1.2311191333
 21
-29.8399951665
 31
0.0
  0
LINE
  5
2D5
330
1F
100
AcDbEntity
  8
0
  6
Continuous
 62
     7
370
    30
100
AcDbLine
 10
1.9766272345
 20
-29.5234953827
 30
0.0
 11
1.9766272345
 21
-27.0234952663
 31
0.0
  0
LINE
  5
2D6
330
1F
100
AcDbEntity
  8
0
  6
Continuous
 62
     7
370
    30
100
AcDbLine
 10
1.9766272345
 20
-29.5234953827
 30
0.0
 11
1.7266272559
 21
-29.5234953827
 31
0.0
  0
LINE
  5
2D7
330
1F
100
AcDbEntity
  8
0
  6
Continuous
 62
     7
370
    30
100
AcDbLine
 10
1.7266272559
 20
-29.5234953827
 30
0.0
 11
1.7266272559
 21
-27.0234952663
 31
0.0
  0
LINE
  5
2D8
330
1F
100
AcDbEntity
  8
0
  6
Continuous
 62
     7
370
    30
100
AcDbLine
 10
1.9766272345
 20
-27.0234952663
 30
0.0
 11
1.7266272559
 21
-27.0234952663
 31
0.0
  0
LINE
  5
2D9
330
1F
100
AcDbEntity
  8
0
  6
Continuous
 62
     7
370
    30
100
AcDbLine
 10
1.9766272345
 20
-23.5894951328
 30
0.0
 11
1.7266272559
 21
-23.5894951328
 31
0.0
  0
LINE
  5
2DA
330
1F
100
AcDbEntity
  8
0
  6
Continuous
 62
     7
370
    30
100
AcDbLine
 10
1.9766272345
 20
-26.0894952493
 30
0.0
 11
1.9766272345
 21
-23.5894951328
 31
0.0
  0
LINE
  5
2DB
330
1F
100
AcDbEntity
  8
0
  6
Continuous
 62
     7
370
    30
100
AcDbLine
 10
1.9766272345
 20
-26.0894952493
 30
0.0
 11
1.7266272559
 21
-26.0894952493
 31
0.0
  0
LINE
  5
2DC
330
1F
100
AcDbEntity
  8
0
  6
Continuous
 62
     7
370
    30
100
AcDbLine
 10
1.7266272559
 20
-26.0894952493
 30
0.0
 11
1.7266272559
 21
-23.5894951328
 31
0.0
  0
LINE
  5
2DD
330
1F
100
AcDbEntity
  8
0
  6
Continuous
 62
     7
370
    30
100
AcDbLine
 10
1.6953772035
 20
-23.5894951328
 30
0.0
 11
1.7266272559
 21
-23.5894951328
 31
0.0
  0
LINE
  5
2DE
330
1F
100
AcDbEntity
  8
0
  6
Continuous
 62
     7
370
    30
100
AcDbLine
 10
1.6953772035
 20
-26.0894952493
 30
0.0
 11
1.7266272559
 21
-26.0894952493
 31
0.0
  0
LINE
  5
2DF
330
1F
100
AcDbEntity
  8
0
  6
Continuous
 62
     7
370
    30
100
AcDbLine
 10
1.6953772035
 20
-27.0234952663
 30
0.0
 11
1.7266272559
 21
-27.0234952663
 31
0.0
  0
LINE
  5
2E0
330
1F
100
AcDbEntity
  8
0
  6
Continuous
 62
     7
370
    30
100
AcDbLine
 10
1.6953772035
 20
-29.5234953827
 30
0.0
 11
1.7266272559
 21
-29.5234953827
 31
0.0
  0
ARC
  5
2E1
330
1F
100
AcDbEntity
  8
0
  6
Continuous
 62
     7
370
    30
100
AcDbCircle
 10
1.5083772211
 20
-29.7799952578
 30
0.0
 40
0.0620000000000001
100
AcDbArc
 50
284.592550602
 51
0.0
  0
LINE
  5
2E2
330
1F
100
AcDbEntity
  8
0
  6
Continuous
 62
     7
370
    30
100
AcDbLine
 10
1.5703772142
 20
-29.779995113
 30
0.0
 11
1.5703772142
 21
-26.7669952611
 31
0.0
  0
ARC
  5
2E3
330
1F
100
AcDbEntity
  8
0
  6
Continuous
 62
     7
370
    30
100
AcDbCircle
 10
1.5083772211
 20
-26.7669952578
 30
0.0
 40
0.0620000000000001
100
AcDbArc
 50
0.0
 51
75.4074493981
  0
LINE
  5
2E4
330
1F
100
AcDbEntity
  8
0
  6
Continuous
 62
     7
370
    30
100
AcDbLine
 10
1.664377215
 20
-26.5949952576
 30
0.0
 11
1.6043772348
 21
-26.5949952576
 31
0.0
  0
ARC
  5
2E5
330
1F
100
AcDbEntity
  8
0
  6
Continuous
 62
     7
370
    30
100
AcDbCircle
 10
1.6643772211
 20
-26.6259952578
 30
0.0
 40
0.0310000000000004
100
AcDbArc
 50
0.0
 51
90.0
  0
LINE
  5
2E6
330
1F
100
AcDbEntity
  8
0
  6
Continuous
 62
     7
370
    30
100
AcDbLine
 10
1.6953772035
 20
-26.6259952599
 30
0.0
 11
1.6953772035
 21
-29.9209952974
 31
0.0
  0
ARC
  5
2E7
330
1F
100
AcDbEntity
  8
0
  6
Continuous
 62
     7
370
    30
100
AcDbCircle
 10
1.6643772211
 20
-29.9209952578
 30
0.0
 40
0.0310000000000001
100
AcDbArc
 50
270.0
 51
0.0
  0
LINE
  5
2E8
330
1F
100
AcDbEntity
  8
0
  6
Continuous
 62
     7
370
    30
100
AcDbLine
 10
1.664377215
 20
-29.951995286
 30
0.0
 11
1.6043772348
 21
-29.951995286
 31
0.0
  0
ARC
  5
2E9
330
1F
100
AcDbEntity
  8
0
  6
Continuous
 62
     7
370
    30
100
AcDbCircle
 10
1.5083772211
 20
-26.3459952578
 30
0.0
 40
0.062000000000004
100
AcDbArc
 50
284.5925506021
 51
0.0
  0
LINE
  5
2EA
330
1F
100
AcDbEntity
  8
0
  6
Continuous
 62
     7
370
    30
100
AcDbLine
 10
1.5703772142
 20
-26.3459952545
 30
0.0
 11
1.5703772142
 21
-23.3329954026
 31
0.0
  0
ARC
  5
2EB
330
1F
100
AcDbEntity
  8
0
  6
Continuous
 62
     7
370
    30
100
AcDbCircle
 10
1.5083772211
 20
-23.3329952578
 30
0.0
 40
0.0619999999999999
100
AcDbArc
 50
0.0
 51
75.4074493981
  0
LINE
  5
2EC
330
1F
100
AcDbEntity
  8
0
  6
Continuous
 62
     7
370
    30
100
AcDbLine
 10
1.664377215
 20
-23.1609952295
 30
0.0
 11
1.6043772348
 21
-23.1609952295
 31
0.0
  0
ARC
  5
2ED
330
1F
100
AcDbEntity
  8
0
  6
Continuous
 62
     7
370
    30
100
AcDbCircle
 10
1.6643772211
 20
-23.1919952578
 30
0.0
 40
0.0310000000000004
100
AcDbArc
 50
0.0
 51
90.0
  0
LINE
  5
2EE
330
1F
100
AcDbEntity
  8
0
  6
Continuous
 62
     7
370
    30
100
AcDbLine
 10
1.6953772035
 20
-23.1919952181
 30
0.0
 11
1.6953772035
 21
-26.4869952556
 31
0.0
  0
ARC
  5
2EF
330
1F
100
AcDbEntity
  8
0
  6
Continuous
 62
     7
370
    30
100
AcDbCircle
 10
1.6643772211
 20
-26.4869952578
 30
0.0
 40
0.0309999999999999
100
AcDbArc
 50
270.0
 51
0.0
  0
LINE
  5
2F0
330
1F
100
AcDbEntity
  8
0
  6
Continuous
 62
     7
370
    30
100
AcDbLine
 10
1.664377215
 20
-26.5179952579
 30
0.0
 11
1.6043772348
 21
-26.5179952579
 31
0.0
  0
LINE
  5
2F1
330
1F
100
AcDbEntity
  8
0
  6
Continuous
 62
     7
370
    30
100
AcDbLine
 10
2.0123772248
 20
-29.951995286
 30
0.0
 11
2.3853772211
 21
-29.951995286
 31
0.0
  0
LINE
  5
2F2
330
1F
100
AcDbEntity
  8
0
  6
Continuous
 62
     7
370
    30
100
AcDbLine
 10
1.9813772363
 20
-29.9209952974
 30
0.0
 11
1.9813772363
 21
-26.6259952599
 31
0.0
  0
LINE
  5
2F3
330
1F
100
AcDbEntity
  8
0
  6
Continuous
 62
     7
370
    30
100
AcDbLine
 10
2.0123772248
 20
-26.5949952576
 30
0.0
 11
2.3853772211
 21
-26.5949952576
 31
0.0
  0
ARC
  5
2F4
330
1F
100
AcDbEntity
  8
0
  6
Continuous
 62
     7
370
    30
100
AcDbCircle
 10
2.3853772211
 20
-26.6259952578
 30
0.0
 40
0.0310000000000001
100
AcDbArc
 50
0.0
 51
90.0
  0
LINE
  5
2F5
330
1F
100
AcDbEntity
  8
0
  6
Continuous
 62
     7
370
    30
100
AcDbLine
 10
2.4163772211
 20
-26.6739952587
 30
0.0
 11
2.4163772211
 21
-26.6259952599
 31
0.0
  0
ARC
  5
2F6
330
1F
100
AcDbEntity
  8
0
  6
Continuous
 62
     7
370
    30
100
AcDbCircle
 10
2.3853772211
 20
-26.6739952578
 30
0.0
 40
0.0309999999999993
100
AcDbArc
 50
270.0
 51
0.0
  0
LINE
  5
2F7
330
1F
100
AcDbEntity
  8
0
  6
Continuous
 62
     7
370
    30
100
AcDbLine
 10
2.3853772211
 20
-26.7049952565
 30
0.0
 11
2.1683772211
 21
-26.7049952565
 31
0.0
  0
ARC
  5
2F8
330
1F
100
AcDbEntity
  8
0
  6
Continuous
 62
     7
370
    30
100
AcDbCircle
 10
2.1683772211
 20
-26.7669952578
 30
0.0
 40
0.0619999999999998
100
AcDbArc
 50
90.0
 51
180.0
  0
LINE
  5
2F9
330
1F
100
AcDbEntity
  8
0
  6
Continuous
 62
     7
370
    30
100
AcDbLine
 10
2.1063772256
 20
-26.7669952611
 30
0.0
 11
2.1063772256
 21
-29.779995113
 31
0.0
  0
ARC
  5
2FA
330
1F
100
AcDbEntity
  8
0
  6
Continuous
 62
     7
370
    30
100
AcDbCircle
 10
2.1683772211
 20
-29.7799952578
 30
0.0
 40
0.0620000000000047
100
AcDbArc
 50
180.0
 51
270.0
  0
LINE
  5
2FB
330
1F
100
AcDbEntity
  8
0
  6
Continuous
 62
     7
370
    30
100
AcDbLine
 10
2.1683772211
 20
-29.8419953834
 30
0.0
 11
2.3853772211
 21
-29.8419953834
 31
0.0
  0
ARC
  5
2FC
330
1F
100
AcDbEntity
  8
0
  6
Continuous
 62
     7
370
    30
100
AcDbCircle
 10
2.3853772211
 20
-29.8729952578
 30
0.0
 40
0.0309999999999997
100
AcDbArc
 50
0.0
 51
90.0
  0
LINE
  5
2FD
330
1F
100
AcDbEntity
  8
0
  6
Continuous
 62
     7
370
    30
100
AcDbLine
 10
2.4163772211
 20
-29.9209952974
 30
0.0
 11
2.4163772211
 21
-29.8729953719
 31
0.0
  0
ARC
  5
2FE
330
1F
100
AcDbEntity
  8
0
  6
Continuous
 62
     7
370
    30
100
AcDbCircle
 10
2.3853772211
 20
-29.9209952578
 30
0.0
 40
0.0309999999999997
100
AcDbArc
 50
270.0
 51
0.0
  0
ARC
  5
2FF
330
1F
100
AcDbEntity
  8
0
  6
Continuous
 62
     7
370
    30
100
AcDbCircle
 10
2.0123772211
 20
-26.6259952578
 30
0.0
 40
0.0310000000000006
100
AcDbArc
 50
90.0
 51
180.0
  0
ARC
  5
300
330
1F
100
AcDbEntity
  8
0
  6
Continuous
 62
     7
370
    30
100
AcDbCircle
 10
2.0123772211
 20
-29.9209952578
 30
0.0
 40
0.0309999999999999
100
AcDbArc
 50
180.0
 51
270.0
  0
LINE
  5
301
330
1F
100
AcDbEntity
  8
0
  6
Continuous
 62
     7
370
    30
100
AcDbLine
 10
2.0123772248
 20
-26.5179952579
 30
0.0
 11
2.3853772211
 21
-26.5179952579
 31
0.0
  0
LINE
  5
302
330
1F
100
AcDbEntity
  8
0
  6
Continuous
 62
     7
370
    30
100
AcDbLine
 10
1.9813772363
 20
-26.4869952556
 30
0.0
 11
1.9813772363
 21
-23.1919952181
 31
0.0
  0
LINE
  5
303
330
1F
100
AcDbEntity
  8
0
  6
Continuous
 62
     7
370
    30
100
AcDbLine
 10
2.0123772248
 20
-23.1609952295
 30
0.0
 11
2.3853772211
 21
-23.1609952295
 31
0.0
  0
ARC
  5
304
330
1F
100
AcDbEntity
  8
0
  6
Continuous
 62
     7
370
    30
100
AcDbCircle
 10
2.3853772211
 20
-23.1919952578
 30
0.0
 40
0.0309999999999997
100
AcDbArc
 50
0.0
 51
90.0
  0
LINE
  5
305
330
1F
100
AcDbEntity
  8
0
  6
Continuous
 62
     7
370
    30
100
AcDbLine
 10
2.4163772211
 20
-23.2399951436
 30
0.0
 11
2.4163772211
 21
-23.1919952181
 31
0.0
  0
ARC
  5
306
330
1F
100
AcDbEntity
  8
0
  6
Continuous
 62
     7
370
    30
100
AcDbCircle
 10
2.3853772211
 20
-23.2399952578
 30
0.0
 40
0.0309999999999993
100
AcDbArc
 50
270.0
 51
0.0
  0
LINE
  5
307
330
1F
100
AcDbEntity
  8
0
  6
Continuous
 62
     7
370
    30
100
AcDbLine
 10
2.3853772211
 20
-23.2709951321
 30
0.0
 11
2.1683772211
 21
-23.2709951321
 31
0.0
  0
ARC
  5
308
330
1F
100
AcDbEntity
  8
0
  6
Continuous
 62
     7
370
    30
100
AcDbCircle
 10
2.1683772211
 20
-23.3329952578
 30
0.0
 40
0.0620000000000012
100
AcDbArc
 50
90.0
 51
180.0
  0
LINE
  5
309
330
1F
100
AcDbEntity
  8
0
  6
Continuous
 62
     7
370
    30
100
AcDbLine
 10
2.1063772256
 20
-23.3329954026
 30
0.0
 11
2.1063772256
 21
-26.3459952545
 31
0.0
  0
ARC
  5
30A
330
1F
100
AcDbEntity
  8
0
  6
Continuous
 62
     7
370
    30
100
AcDbCircle
 10
2.1683772211
 20
-26.3459952578
 30
0.0
 40
0.0620000000000012
100
AcDbArc
 50
180.0
 51
270.0
  0
LINE
  5
30B
330
1F
100
AcDbEntity
  8
0
  6
Continuous
 62
     7
370
    30
100
AcDbLine
 10
2.1683772211
 20
-26.4079952591
 30
0.0
 11
2.3853772211
 21
-26.4079952591
 31
0.0
  0
ARC
  5
30C
330
1F
100
AcDbEntity
  8
0
  6
Continuous
 62
     7
370
    30
100
AcDbCircle
 10
2.3853772211
 20
-26.4389952578
 30
0.0
 40
0.0310000000000024
100
AcDbArc
 50
0.0
 51
90.0
  0
LINE
  5
30D
330
1F
100
AcDbEntity
  8
0
  6
Continuous
 62
     7
370
    30
100
AcDbLine
 10
2.4163772211
 20
-26.4869952556
 30
0.0
 11
2.4163772211
 21
-26.4389952568
 31
0.0
  0
ARC
  5
30E
330
1F
100
AcDbEntity
  8
0
  6
Continuous
 62
     7
370
    30
100
AcDbCircle
 10
2.3853772211
 20
-26.4869952578
 30
0.0
 40
0.0309999999999997
100
AcDbArc
 50
270.0
 51
0.0
  0
ARC
  5
30F
330
1F
100
AcDbEntity
  8
0
  6
Continuous
 62
     7
370
    30
100
AcDbCircle
 10
2.0123772211
 20
-23.1919952578
 30
0.0
 40
0.0310000000000004
100
AcDbArc
 50
90.0
 51
180.0
  0
ARC
  5
310
330
1F
100
AcDbEntity
  8
0
  6
Continuous
 62
     7
370
    30
100
AcDbCircle
 10
2.0123772211
 20
-26.4869952578
 30
0.0
 40
0.0309999999999999
100
AcDbArc
 50
180.0
 51
270.0
  0
LINE
  5
311
330
1F
100
AcDbEntity
  8
0
  6
Continuous
 62
     8
370
     0
100
AcDbLine
 10
2.4793772196
 20
-30.0199953271
 30
0.0
 11
2.4783772212
 21
-30.0199953271
 31
0.0
  0
LINE
  5
312
330
1F
100
AcDbEntity
  8
0
  6
Continuous
 62
     8
370
     0
100
AcDbLine
 10
2.4133772212
 20
-30.0199953271
 30
0.0
 11
1.7943772332
 21
-30.0199953271
 31
0.0
  0
LINE
  5
313
330
1F
100
AcDbEntity
  8
0
  6
Continuous
 62
     8
370
     0
100
AcDbLine
 10
1.7263771921
 20
-30.0199953271
 30
0.0
 11
1.4694426735
 21
-30.0199953271
 31
0.0
  0
LINE
  5
314
330
1F
100
AcDbEntity
  8
0
  6
Continuous
 62
     8
370
     0
100
AcDbLine
 10
1.3643117547
 20
-30.0199953271
 30
0.0
 11
1.1073772362
 21
-30.0199953271
 31
0.0
  0
LINE
  5
315
330
1F
100
AcDbEntity
  8
0
  6
Continuous
 62
     8
370
     0
100
AcDbLine
 10
1.042377227
 20
-30.0199953271
 30
0.0
 11
0.914377279
 21
-30.0199953271
 31
0.0
  0
LINE
  5
316
330
1F
100
AcDbEntity
  8
0
  6
Continuous
 62
     8
370
     0
100
AcDbLine
 10
2.4793772196
 20
-23.0929951884
 30
0.0
 11
2.4783772212
 21
-23.0929951884
 31
0.0
  0
LINE
  5
317
330
1F
100
AcDbEntity
  8
0
  6
Continuous
 62
     8
370
     0
100
AcDbLine
 10
2.4133772212
 20
-23.0929951884
 30
0.0
 11
1.7943772332
 21
-23.0929951884
 31
0.0
  0
LINE
  5
318
330
1F
100
AcDbEntity
  8
0
  6
Continuous
 62
     8
370
     0
100
AcDbLine
 10
1.7263771921
 20
-23.0929951884
 30
0.0
 11
1.4694426735
 21
-23.0929951884
 31
0.0
  0
LINE
  5
319
330
1F
100
AcDbEntity
  8
0
  6
Continuous
 62
     8
370
     0
100
AcDbLine
 10
1.3643117547
 20
-23.0929951884
 30
0.0
 11
1.1073772362
 21
-23.0929951884
 31
0.0
  0
LINE
  5
31A
330
1F
100
AcDbEntity
  8
0
  6
Continuous
 62
     8
370
     0
100
AcDbLine
 10
1.042377227
 20
-23.0929951884
 30
0.0
 11
0.914377279
 21
-23.0929951884
 31
0.0
  0
LINE
  5
31B
330
1F
100
AcDbEntity
  8
0
  6
Continuous
 62
     8
370
     0
100
AcDbLine
 10
1.2311191333
 20
-23.158995306
 30
0.0
 11
1.2311191333
 21
-23.272995349
 31
0.0
  0
LINE
  5
31C
330
1F
100
AcDbEntity
  8
0
  6
Continuous
 62
     8
370
     0
100
AcDbLine
 10
1.2311191333
 20
-26.4059952622
 30
0.0
 11
1.2311191333
 21
-26.5199952571
 31
0.0
  0
LINE
  5
31D
330
1F
100
AcDbEntity
  8
0
  6
Continuous
 62
     8
370
     0
100
AcDbLine
 10
1.2311191333
 20
-26.5929952584
 30
0.0
 11
1.2311191333
 21
-26.7069952533
 31
0.0
  0
LINE
  5
31E
330
1F
100
AcDbEntity
  8
0
  6
Continuous
 62
     8
370
     0
100
AcDbLine
 10
1.2311191333
 20
-29.8399951665
 30
0.0
 11
1.2311191333
 21
-29.9539952096
 31
0.0
  0
LINE
  5
31F
330
1F
100
AcDbEntity
  8
0
  6
Continuous
 62
     7
370
    30
100
AcDbLine
 10
51.016794144
 20
47.6387750635
 30
0.0
 11
51.033794081
 21
47.6387750635
 31
0.0
  0
LINE
  5
320
330
1F
100
AcDbEntity
  8
0
  6
Continuous
 62
     7
370
    30
100
AcDbLine
 10
51.033794081
 20
47.9637751091
 30
0.0
 11
51.016794144
 21
47.9637751091
 31
0.0
  0
LINE
  5
321
330
1F
100
AcDbEntity
  8
0
  6
Continuous
 62
     7
370
    30
100
AcDbLine
 10
50.9557941287
 20
47.7383173136
 30
0.0
 11
50.9632752156
 21
47.7512750905
 31
0.0
  0
LINE
  5
322
330
1F
100
AcDbEntity
  8
0
  6
Continuous
 62
     7
370
    30
100
AcDbLine
 10
50.9632752156
 20
47.851275082
 30
0.0
 11
50.9557941287
 21
47.864232859
 31
0.0
  0
LINE
  5
323
330
1F
100
AcDbEntity
  8
0
  6
Continuous
 62
     7
370
    30
100
AcDbLine
 10
50.8293055632
 20
47.8702750892
 30
0.0
 11
50.8183359033
 21
47.851275082
 31
0.0
  0
LINE
  5
324
330
1F
100
AcDbEntity
  8
0
  6
Continuous
 62
     7
370
    30
100
AcDbLine
 10
50.8183359033
 20
47.7512750905
 30
0.0
 11
50.8293055632
 21
47.7322750834
 31
0.0
  0
LINE
  5
325
330
1F
100
AcDbEntity
  8
0
  6
Continuous
 62
     7
370
    30
100
AcDbLine
 10
50.8293055632
 20
47.7322750834
 30
0.0
 11
50.830305525
 21
47.7322750834
 31
0.0
  0
LINE
  5
326
330
1F
100
AcDbEntity
  8
0
  6
Continuous
 62
     7
370
    30
100
AcDbLine
 10
50.830305525
 20
47.8702750892
 30
0.0
 11
50.8293055632
 21
47.8702750892
 31
0.0
  0
LINE
  5
327
330
1F
100
AcDbEntity
  8
0
  6
Continuous
 62
     7
370
    30
100
AcDbLine
 10
50.7687942356
 20
47.7322750834
 30
0.0
 11
50.7693055097
 21
47.7322750834
 31
0.0
  0
LINE
  5
328
330
1F
100
AcDbEntity
  8
0
  6
Continuous
 62
     7
370
    30
100
AcDbLine
 10
50.7693055097
 20
47.8702750892
 30
0.0
 11
50.7683055479
 21
47.8702750892
 31
0.0
  0
LINE
  5
329
330
1F
100
AcDbEntity
  8
0
  6
Continuous
 62
     7
370
    30
100
AcDbLine
 10
50.7083054944
 20
47.8702750892
 30
0.0
 11
50.7073055326
 21
47.8702750892
 31
0.0
  0
LINE
  5
32A
330
1F
100
AcDbEntity
  8
0
  6
Continuous
 62
     7
370
    30
100
AcDbLine
 10
51.0123056092
 20
47.7322750834
 30
0.0
 11
51.016794144
 21
47.7322750834
 31
0.0
  0
LINE
  5
32B
330
1F
100
AcDbEntity
  8
0
  6
Continuous
 62
     7
370
    30
100
AcDbLine
 10
51.016794144
 20
47.8702750892
 30
0.0
 11
51.0123056092
 21
47.8702750892
 31
0.0
  0
LINE
  5
32C
330
1F
100
AcDbEntity
  8
0
  6
Continuous
 62
     7
370
    30
100
AcDbLine
 10
50.7192751543
 20
47.851275082
 30
0.0
 11
50.7083054944
 21
47.8702750892
 31
0.0
  0
LINE
  5
32D
330
1F
100
AcDbEntity
  8
0
  6
Continuous
 62
     7
370
    30
100
AcDbLine
 10
50.7693055097
 20
47.7322750834
 30
0.0
 11
50.7802751696
 21
47.7512750905
 31
0.0
  0
LINE
  5
32E
330
1F
100
AcDbEntity
  8
0
  6
Continuous
 62
     7
370
    30
100
AcDbLine
 10
50.7802751696
 20
47.851275082
 30
0.0
 11
50.7693055097
 21
47.8702750892
 31
0.0
  0
LINE
  5
32F
330
1F
100
AcDbEntity
  8
0
  6
Continuous
 62
     7
370
    30
100
AcDbLine
 10
51.0123056092
 20
47.8702750892
 30
0.0
 11
51.0013359493
 21
47.851275082
 31
0.0
  0
LINE
  5
330
330
1F
100
AcDbEntity
  8
0
  6
Continuous
 62
     7
370
    30
100
AcDbLine
 10
51.0013359493
 20
47.7512750905
 30
0.0
 11
51.0123056092
 21
47.7322750834
 31
0.0
  0
LINE
  5
331
330
1F
100
AcDbEntity
  8
0
  6
Continuous
 62
     7
370
    30
100
AcDbLine
 10
50.7073055326
 20
47.8702750892
 30
0.0
 11
50.6963358727
 21
47.851275082
 31
0.0
  0
LINE
  5
332
330
1F
100
AcDbEntity
  8
0
  6
Continuous
 62
     7
370
    30
100
AcDbLine
 10
50.6963358727
 20
47.7512750905
 30
0.0
 11
50.7067942585
 21
47.7331610131
 31
0.0
  0
LINE
  5
333
330
1F
100
AcDbEntity
  8
0
  6
Continuous
 62
     7
370
    30
100
AcDbLine
 10
50.830305525
 20
47.7322750834
 30
0.0
 11
50.841275185
 21
47.7512750905
 31
0.0
  0
LINE
  5
334
330
1F
100
AcDbEntity
  8
0
  6
Continuous
 62
     7
370
    30
100
AcDbLine
 10
50.841275185
 20
47.851275082
 30
0.0
 11
50.830305525
 21
47.8702750892
 31
0.0
  0
LINE
  5
335
330
1F
100
AcDbEntity
  8
0
  6
Continuous
 62
     7
370
    30
100
AcDbLine
 10
50.7683055479
 20
47.8702750892
 30
0.0
 11
50.757335888
 21
47.851275082
 31
0.0
  0
LINE
  5
336
330
1F
100
AcDbEntity
  8
0
  6
Continuous
 62
     7
370
    30
100
AcDbLine
 10
50.8903055786
 20
47.7322750834
 30
0.0
 11
50.8913055403
 21
47.7322750834
 31
0.0
  0
LINE
  5
337
330
1F
100
AcDbEntity
  8
0
  6
Continuous
 62
     7
370
    30
100
AcDbLine
 10
50.8913055403
 20
47.8702750892
 30
0.0
 11
50.8903055786
 21
47.8702750892
 31
0.0
  0
LINE
  5
338
330
1F
100
AcDbEntity
  8
0
  6
Continuous
 62
     7
370
    30
100
AcDbLine
 10
50.8903055786
 20
47.8702750892
 30
0.0
 11
50.8793359186
 21
47.851275082
 31
0.0
  0
LINE
  5
339
330
1F
100
AcDbEntity
  8
0
  6
Continuous
 62
     7
370
    30
100
AcDbLine
 10
50.8793359186
 20
47.7512750905
 30
0.0
 11
50.8903055786
 21
47.7322750834
 31
0.0
  0
LINE
  5
33A
330
1F
100
AcDbEntity
  8
0
  6
Continuous
 62
     7
370
    30
100
AcDbLine
 10
50.8913055403
 20
47.7322750834
 30
0.0
 11
50.8937941516
 21
47.7365852736
 31
0.0
  0
LINE
  5
33B
330
1F
100
AcDbEntity
  8
0
  6
Continuous
 62
     7
370
    30
100
AcDbLine
 10
50.8937941516
 20
47.865964899
 30
0.0
 11
50.8913055403
 21
47.8702750892
 31
0.0
  0
LINE
  5
33C
330
1F
100
AcDbEntity
  8
0
  6
Continuous
 62
     7
370
    30
100
AcDbLine
 10
50.6463055173
 20
47.7322750834
 30
0.0
 11
50.6473057724
 21
47.7322750834
 31
0.0
  0
LINE
  5
33D
330
1F
100
AcDbEntity
  8
0
  6
Continuous
 62
     7
370
    30
100
AcDbLine
 10
50.6473057724
 20
47.8702750892
 30
0.0
 11
50.6463055173
 21
47.8702750892
 31
0.0
  0
LINE
  5
33E
330
1F
100
AcDbEntity
  8
0
  6
Continuous
 62
     7
370
    30
100
AcDbLine
 10
50.6473057724
 20
47.7322750834
 30
0.0
 11
50.658275139
 21
47.7512750905
 31
0.0
  0
LINE
  5
33F
330
1F
100
AcDbEntity
  8
0
  6
Continuous
 62
     7
370
    30
100
AcDbLine
 10
50.658275139
 20
47.851275082
 30
0.0
 11
50.6473057724
 21
47.8702750892
 31
0.0
  0
LINE
  5
340
330
1F
100
AcDbEntity
  8
0
  6
Continuous
 62
     7
370
    30
100
AcDbLine
 10
50.6463055173
 20
47.8702750892
 30
0.0
 11
50.6353358573
 21
47.851275082
 31
0.0
  0
LINE
  5
341
330
1F
100
AcDbEntity
  8
0
  6
Continuous
 62
     7
370
    30
100
AcDbLine
 10
50.6353358573
 20
47.7512750905
 30
0.0
 11
50.6463055173
 21
47.7322750834
 31
0.0
  0
LINE
  5
342
330
1F
100
AcDbEntity
  8
0
  6
Continuous
 62
     7
370
    30
100
AcDbLine
 10
50.757335888
 20
47.851275082
 30
0.0
 11
50.7192751543
 21
47.851275082
 31
0.0
  0
LINE
  5
343
330
1F
100
AcDbEntity
  8
0
  6
Continuous
 62
     7
370
    30
100
AcDbLine
 10
50.8793359186
 20
47.851275082
 30
0.0
 11
50.841275185
 21
47.851275082
 31
0.0
  0
LINE
  5
344
330
1F
100
AcDbEntity
  8
0
  6
Continuous
 62
     7
370
    30
100
AcDbLine
 10
50.841275185
 20
47.7512750905
 30
0.0
 11
50.8793359186
 21
47.7512750905
 31
0.0
  0
LINE
  5
345
330
1F
100
AcDbEntity
  8
0
  6
Continuous
 62
     7
370
    30
100
AcDbLine
 10
50.6963358727
 20
47.851275082
 30
0.0
 11
50.658275139
 21
47.851275082
 31
0.0
  0
LINE
  5
346
330
1F
100
AcDbEntity
  8
0
  6
Continuous
 62
     7
370
    30
100
AcDbLine
 10
50.658275139
 20
47.7512750905
 30
0.0
 11
50.6963358727
 21
47.7512750905
 31
0.0
  0
LINE
  5
347
330
1F
100
AcDbEntity
  8
0
  6
Continuous
 62
     7
370
    30
100
AcDbLine
 10
50.6133965374
 20
47.851275082
 30
0.0
 11
50.5267940979
 21
47.8012750863
 31
0.0
  0
LINE
  5
348
330
1F
100
AcDbEntity
  8
0
  6
Continuous
 62
     7
370
    30
100
AcDbLine
 10
50.5267940979
 20
47.8012750863
 30
0.0
 11
50.6133965374
 21
47.7512750905
 31
0.0
  0
LINE
  5
349
330
1F
100
AcDbEntity
  8
0
  6
Continuous
 62
     7
370
    30
100
AcDbLine
 10
51.0013359493
 20
47.851275082
 30
0.0
 11
50.9632752156
 21
47.851275082
 31
0.0
  0
LINE
  5
34A
330
1F
100
AcDbEntity
  8
0
  6
Continuous
 62
     7
370
    30
100
AcDbLine
 10
50.9632752156
 20
47.7512750905
 30
0.0
 11
51.0013359493
 21
47.7512750905
 31
0.0
  0
LINE
  5
34B
330
1F
100
AcDbEntity
  8
0
  6
Continuous
 62
     7
370
    30
100
AcDbLine
 10
50.6353358573
 20
47.851275082
 30
0.0
 11
50.6133965374
 21
47.851275082
 31
0.0
  0
LINE
  5
34C
330
1F
100
AcDbEntity
  8
0
  6
Continuous
 62
     7
370
    30
100
AcDbLine
 10
50.6133965374
 20
47.7512750905
 30
0.0
 11
50.6353358573
 21
47.7512750905
 31
0.0
  0
LINE
  5
34D
330
1F
100
AcDbEntity
  8
0
  6
Continuous
 62
     7
370
    30
100
AcDbLine
 10
50.8183359033
 20
47.851275082
 30
0.0
 11
50.7802751696
 21
47.851275082
 31
0.0
  0
LINE
  5
34E
330
1F
100
AcDbEntity
  8
0
  6
Continuous
 62
     7
370
    30
100
AcDbLine
 10
50.7802751696
 20
47.7512750905
 30
0.0
 11
50.8183359033
 21
47.7512750905
 31
0.0
  0
LINE
  5
34F
330
1F
100
AcDbEntity
  8
0
  6
Continuous
 62
     7
370
    30
100
AcDbLine
 10
43.9797941027
 20
47.9637751091
 30
0.0
 11
43.9627941658
 21
47.9637751091
 31
0.0
  0
LINE
  5
350
330
1F
100
AcDbEntity
  8
0
  6
Continuous
 62
     7
370
    30
100
AcDbLine
 10
43.9627941658
 20
47.6387750635
 30
0.0
 11
43.9797941027
 21
47.6387750635
 31
0.0
  0
LINE
  5
351
330
1F
100
AcDbEntity
  8
0
  6
Continuous
 62
     7
370
    30
100
AcDbLine
 10
44.3502827295
 20
47.8702750892
 30
0.0
 11
44.3492824744
 21
47.8702750892
 31
0.0
  0
LINE
  5
352
330
1F
100
AcDbEntity
  8
0
  6
Continuous
 62
     7
370
    30
100
AcDbLine
 10
44.3492824744
 20
47.7322750834
 30
0.0
 11
44.3502827295
 21
47.7322750834
 31
0.0
  0
LINE
  5
353
330
1F
100
AcDbEntity
  8
0
  6
Continuous
 62
     7
370
    30
100
AcDbLine
 10
44.3502827295
 20
47.7322750834
 30
0.0
 11
44.3612523894
 21
47.7512750905
 31
0.0
  0
LINE
  5
354
330
1F
100
AcDbEntity
  8
0
  6
Continuous
 62
     7
370
    30
100
AcDbLine
 10
44.3612523894
 20
47.851275082
 30
0.0
 11
44.3502827295
 21
47.8702750892
 31
0.0
  0
LINE
  5
355
330
1F
100
AcDbEntity
  8
0
  6
Continuous
 62
     7
370
    30
100
AcDbLine
 10
44.3492824744
 20
47.8702750892
 30
0.0
 11
44.3383131077
 21
47.851275082
 31
0.0
  0
LINE
  5
356
330
1F
100
AcDbEntity
  8
0
  6
Continuous
 62
     7
370
    30
100
AcDbLine
 10
44.3383131077
 20
47.7512750905
 30
0.0
 11
44.3492824744
 21
47.7322750834
 31
0.0
  0
LINE
  5
357
330
1F
100
AcDbEntity
  8
0
  6
Continuous
 62
     7
370
    30
100
AcDbLine
 10
44.1062826682
 20
47.7322750834
 30
0.0
 11
44.1172523281
 21
47.7512750905
 31
0.0
  0
LINE
  5
358
330
1F
100
AcDbEntity
  8
0
  6
Continuous
 62
     7
370
    30
100
AcDbLine
 10
44.1172523281
 20
47.851275082
 30
0.0
 11
44.1062826682
 21
47.8702750892
 31
0.0
  0
LINE
  5
359
330
1F
100
AcDbEntity
  8
0
  6
Continuous
 62
     7
370
    30
100
AcDbLine
 10
44.1062826682
 20
47.8702750892
 30
0.0
 11
44.1052827064
 21
47.8702750892
 31
0.0
  0
LINE
  5
35A
330
1F
100
AcDbEntity
  8
0
  6
Continuous
 62
     7
370
    30
100
AcDbLine
 10
44.1052827064
 20
47.7322750834
 30
0.0
 11
44.1062826682
 21
47.7322750834
 31
0.0
  0
LINE
  5
35B
330
1F
100
AcDbEntity
  8
0
  6
Continuous
 62
     7
370
    30
100
AcDbLine
 10
44.2282826988
 20
47.8702750892
 30
0.0
 11
44.227282737
 21
47.8702750892
 31
0.0
  0
LINE
  5
35C
330
1F
100
AcDbEntity
  8
0
  6
Continuous
 62
     7
370
    30
100
AcDbLine
 10
44.227282737
 20
47.7322750834
 30
0.0
 11
44.2277940111
 21
47.7322750834
 31
0.0
  0
LINE
  5
35D
330
1F
100
AcDbEntity
  8
0
  6
Continuous
 62
     7
370
    30
100
AcDbLine
 10
44.227282737
 20
47.8702750892
 30
0.0
 11
44.2163130771
 21
47.851275082
 31
0.0
  0
LINE
  5
35E
330
1F
100
AcDbEntity
  8
0
  6
Continuous
 62
     7
370
    30
100
AcDbLine
 10
44.2163130771
 20
47.7512750905
 30
0.0
 11
44.227282737
 21
47.7322750834
 31
0.0
  0
LINE
  5
35F
330
1F
100
AcDbEntity
  8
0
  6
Continuous
 62
     7
370
    30
100
AcDbLine
 10
44.1052827064
 20
47.8702750892
 30
0.0
 11
44.1027940951
 21
47.865964899
 31
0.0
  0
LINE
  5
360
330
1F
100
AcDbEntity
  8
0
  6
Continuous
 62
     7
370
    30
100
AcDbLine
 10
44.1027940951
 20
47.7365852736
 30
0.0
 11
44.1052827064
 21
47.7322750834
 31
0.0
  0
LINE
  5
361
330
1F
100
AcDbEntity
  8
0
  6
Continuous
 62
     7
370
    30
100
AcDbLine
 10
44.1662827217
 20
47.8702750892
 30
0.0
 11
44.1553130618
 21
47.851275082
 31
0.0
  0
LINE
  5
362
330
1F
100
AcDbEntity
  8
0
  6
Continuous
 62
     7
370
    30
100
AcDbLine
 10
44.1553130618
 20
47.7512750905
 30
0.0
 11
44.1662827217
 21
47.7322750834
 31
0.0
  0
LINE
  5
363
330
1F
100
AcDbEntity
  8
0
  6
Continuous
 62
     7
370
    30
100
AcDbLine
 10
44.1672826835
 20
47.8702750892
 30
0.0
 11
44.1662827217
 21
47.8702750892
 31
0.0
  0
LINE
  5
364
330
1F
100
AcDbEntity
  8
0
  6
Continuous
 62
     7
370
    30
100
AcDbLine
 10
44.1662827217
 20
47.7322750834
 30
0.0
 11
44.1672826835
 21
47.7322750834
 31
0.0
  0
LINE
  5
365
330
1F
100
AcDbEntity
  8
0
  6
Continuous
 62
     7
370
    30
100
AcDbLine
 10
44.2897939882
 20
47.7331610131
 30
0.0
 11
44.3002523741
 21
47.7512750905
 31
0.0
  0
LINE
  5
366
330
1F
100
AcDbEntity
  8
0
  6
Continuous
 62
     7
370
    30
100
AcDbLine
 10
44.3002523741
 20
47.851275082
 30
0.0
 11
44.2892827141
 21
47.8702750892
 31
0.0
  0
LINE
  5
367
330
1F
100
AcDbEntity
  8
0
  6
Continuous
 62
     7
370
    30
100
AcDbLine
 10
43.9842826375
 20
47.8702750892
 30
0.0
 11
43.9797941027
 21
47.8702750892
 31
0.0
  0
LINE
  5
368
330
1F
100
AcDbEntity
  8
0
  6
Continuous
 62
     7
370
    30
100
AcDbLine
 10
43.9797941027
 20
47.7322750834
 30
0.0
 11
43.9842826375
 21
47.7322750834
 31
0.0
  0
LINE
  5
369
330
1F
100
AcDbEntity
  8
0
  6
Continuous
 62
     7
370
    30
100
AcDbLine
 10
44.2892827141
 20
47.8702750892
 30
0.0
 11
44.2882827524
 21
47.8702750892
 31
0.0
  0
LINE
  5
36A
330
1F
100
AcDbEntity
  8
0
  6
Continuous
 62
     7
370
    30
100
AcDbLine
 10
44.2392523588
 20
47.851275082
 30
0.0
 11
44.2282826988
 21
47.8702750892
 31
0.0
  0
LINE
  5
36B
330
1F
100
AcDbEntity
  8
0
  6
Continuous
 62
     7
370
    30
100
AcDbLine
 10
44.1672826835
 20
47.7322750834
 30
0.0
 11
44.1782523434
 21
47.7512750905
 31
0.0
  0
LINE
  5
36C
330
1F
100
AcDbEntity
  8
0
  6
Continuous
 62
     7
370
    30
100
AcDbLine
 10
44.1782523434
 20
47.851275082
 30
0.0
 11
44.1672826835
 21
47.8702750892
 31
0.0
  0
LINE
  5
36D
330
1F
100
AcDbEntity
  8
0
  6
Continuous
 62
     7
370
    30
100
AcDbLine
 10
44.2882827524
 20
47.8702750892
 30
0.0
 11
44.2773130924
 21
47.851275082
 31
0.0
  0
LINE
  5
36E
330
1F
100
AcDbEntity
  8
0
  6
Continuous
 62
     7
370
    30
100
AcDbLine
 10
43.9842826375
 20
47.7322750834
 30
0.0
 11
43.9952522975
 21
47.7512750905
 31
0.0
  0
LINE
  5
36F
330
1F
100
AcDbEntity
  8
0
  6
Continuous
 62
     7
370
    30
100
AcDbLine
 10
43.9952522975
 20
47.851275082
 30
0.0
 11
43.9842826375
 21
47.8702750892
 31
0.0
  0
LINE
  5
370
330
1F
100
AcDbEntity
  8
0
  6
Continuous
 62
     7
370
    30
100
AcDbLine
 10
44.040794118
 20
47.864232859
 30
0.0
 11
44.0333130311
 21
47.851275082
 31
0.0
  0
LINE
  5
371
330
1F
100
AcDbEntity
  8
0
  6
Continuous
 62
     7
370
    30
100
AcDbLine
 10
44.0333130311
 20
47.7512750905
 30
0.0
 11
44.040794118
 21
47.7383173136
 31
0.0
  0
LINE
  5
372
330
1F
100
AcDbEntity
  8
0
  6
Continuous
 62
     7
370
    30
100
AcDbLine
 10
44.1782523434
 20
47.7512750905
 30
0.0
 11
44.2163130771
 21
47.7512750905
 31
0.0
  0
LINE
  5
373
330
1F
100
AcDbEntity
  8
0
  6
Continuous
 62
     7
370
    30
100
AcDbLine
 10
44.2163130771
 20
47.851275082
 30
0.0
 11
44.1782523434
 21
47.851275082
 31
0.0
  0
LINE
  5
374
330
1F
100
AcDbEntity
  8
0
  6
Continuous
 62
     7
370
    30
100
AcDbLine
 10
44.3612523894
 20
47.7512750905
 30
0.0
 11
44.3831917093
 21
47.7512750905
 31
0.0
  0
LINE
  5
375
330
1F
100
AcDbEntity
  8
0
  6
Continuous
 62
     7
370
    30
100
AcDbLine
 10
44.3831917093
 20
47.851275082
 30
0.0
 11
44.3612523894
 21
47.851275082
 31
0.0
  0
LINE
  5
376
330
1F
100
AcDbEntity
  8
0
  6
Continuous
 62
     7
370
    30
100
AcDbLine
 10
44.3002523741
 20
47.7512750905
 30
0.0
 11
44.3383131077
 21
47.7512750905
 31
0.0
  0
LINE
  5
377
330
1F
100
AcDbEntity
  8
0
  6
Continuous
 62
     7
370
    30
100
AcDbLine
 10
44.3383131077
 20
47.851275082
 30
0.0
 11
44.3002523741
 21
47.851275082
 31
0.0
  0
LINE
  5
378
330
1F
100
AcDbEntity
  8
0
  6
Continuous
 62
     7
370
    30
100
AcDbLine
 10
44.3831917093
 20
47.7512750905
 30
0.0
 11
44.4697941489
 21
47.8012750863
 31
0.0
  0
LINE
  5
379
330
1F
100
AcDbEntity
  8
0
  6
Continuous
 62
     7
370
    30
100
AcDbLine
 10
44.4697941489
 20
47.8012750863
 30
0.0
 11
44.3831917093
 21
47.851275082
 31
0.0
  0
LINE
  5
37A
330
1F
100
AcDbEntity
  8
0
  6
Continuous
 62
     7
370
    30
100
AcDbLine
 10
44.2773130924
 20
47.851275082
 30
0.0
 11
44.2392523588
 21
47.851275082
 31
0.0
  0
LINE
  5
37B
330
1F
100
AcDbEntity
  8
0
  6
Continuous
 62
     7
370
    30
100
AcDbLine
 10
44.1172523281
 20
47.7512750905
 30
0.0
 11
44.1553130618
 21
47.7512750905
 31
0.0
  0
LINE
  5
37C
330
1F
100
AcDbEntity
  8
0
  6
Continuous
 62
     7
370
    30
100
AcDbLine
 10
44.1553130618
 20
47.851275082
 30
0.0
 11
44.1172523281
 21
47.851275082
 31
0.0
  0
LINE
  5
37D
330
1F
100
AcDbEntity
  8
0
  6
Continuous
 62
     7
370
    30
100
AcDbLine
 10
43.9952522975
 20
47.7512750905
 30
0.0
 11
44.0333130311
 21
47.7512750905
 31
0.0
  0
LINE
  5
37E
330
1F
100
AcDbEntity
  8
0
  6
Continuous
 62
     7
370
    30
100
AcDbLine
 10
44.0333130311
 20
47.851275082
 30
0.0
 11
43.9952522975
 21
47.851275082
 31
0.0
  0
LINE
  5
37F
330
1F
100
AcDbEntity
  8
0
  6
Continuous
 62
     7
370
    30
100
AcDbLine
 10
47.1771947061
 20
48.253775099
 30
0.0
 11
45.617393585
 21
48.253775099
 31
0.0
  0
ARC
  5
380
330
1F
100
AcDbEntity
  8
0
  6
Continuous
 62
     7
370
    30
100
AcDbCircle
 10
47.3167941234
 20
48.2227750933
 30
0.0
 40
0.1429999999999981
100
AcDbArc
 50
192.5201657706
 51
167.4798342294
  0
LINE
  5
381
330
1F
100
AcDbEntity
  8
0
  6
Continuous
 62
     7
370
    30
100
AcDbLine
 10
45.617393585
 20
48.1917750852
 30
0.0
 11
47.1771947061
 21
48.1917750852
 31
0.0
  0
ARC
  5
382
330
1F
100
AcDbEntity
  8
0
  6
Continuous
 62
     7
370
    30
100
AcDbCircle
 10
45.4777941234
 20
48.2227750933
 30
0.0
 40
0.1430000000000035
100
AcDbArc
 50
12.5201657706
 51
347.4798342294
  0
ARC
  5
383
330
1F
100
AcDbEntity
  8
0
  6
Continuous
 62
     7
370
    30
100
AcDbCircle
 10
48.9117941234
 20
48.2227750933
 30
0.0
 40
0.1429999999999966
100
AcDbArc
 50
12.5201657706
 51
347.4798342294
  0
LINE
  5
384
330
1F
100
AcDbEntity
  8
0
  6
Continuous
 62
     7
370
    30
100
AcDbLine
 10
50.6111948029
 20
48.253775099
 30
0.0
 11
49.0513936085
 21
48.253775099
 31
0.0
  0
ARC
  5
385
330
1F
100
AcDbEntity
  8
0
  6
Continuous
 62
     7
370
    30
100
AcDbCircle
 10
50.7507941234
 20
48.2227750933
 30
0.0
 40
0.1429999999999981
100
AcDbArc
 50
192.5201657706
 51
167.4798342294
  0
LINE
  5
386
330
1F
100
AcDbEntity
  8
0
  6
Continuous
 62
     7
370
    30
100
AcDbLine
 10
49.0513936085
 20
48.1917750852
 30
0.0
 11
50.6111948029
 21
48.1917750852
 31
0.0
  0
LINE
  5
387
330
1F
100
AcDbEntity
  8
0
  6
Continuous
 62
     7
370
    30
100
AcDbLine
 10
44.2747942682
 20
48.8627750933
 30
0.0
 11
43.9307942154
 21
48.8627750933
 31
0.0
  0
ARC
  5
388
330
1F
100
AcDbEntity
  8
0
  6
Continuous
 62
     7
370
    30
100
AcDbCircle
 10
44.2747941234
 20
48.8477750933
 30
0.0
 40
0.0150000000000006
100
AcDbArc
 50
0.0000000003
 51
90.0
  0
LINE
  5
389
330
1F
100
AcDbEntity
  8
0
  6
Continuous
 62
     7
370
    30
100
AcDbLine
 10
44.2897939882
 20
48.6907750899
 30
0.0
 11
44.2897939882
 21
48.8477750937
 31
0.0
  0
ARC
  5
38A
330
1F
100
AcDbEntity
  8
0
  6
Continuous
 62
     7
370
    30
100
AcDbCircle
 10
44.2747941234
 20
48.6907750933
 30
0.0
 40
0.0150000000000006
100
AcDbArc
 50
270.0
 51
0.0000000003
  0
LINE
  5
38B
330
1F
100
AcDbEntity
  8
0
  6
Continuous
 62
     7
370
    30
100
AcDbLine
 10
44.2427940245
 20
48.6757750948
 30
0.0
 11
44.2747942682
 21
48.6757750948
 31
0.0
  0
ARC
  5
38C
330
1F
100
AcDbEntity
  8
0
  6
Continuous
 62
     7
370
    30
100
AcDbCircle
 10
44.2427941234
 20
48.6907750933
 30
0.0
 40
0.0150000000000077
100
AcDbArc
 50
179.9999999997
 51
270.0
  0
LINE
  5
38D
330
1F
100
AcDbEntity
  8
0
  6
Continuous
 62
     7
370
    30
100
AcDbLine
 10
44.2277940111
 20
48.7857750937
 30
0.0
 11
44.2277940111
 21
48.6907750899
 31
0.0
  0
ARC
  5
38E
330
1F
100
AcDbEntity
  8
0
  6
Continuous
 62
     7
370
    30
100
AcDbCircle
 10
44.2127941234
 20
48.7857750933
 30
0.0
 40
0.0150000000000077
100
AcDbArc
 50
0.0
 51
90.0
  0
LINE
  5
38F
330
1F
100
AcDbEntity
  8
0
  6
Continuous
 62
     7
370
    30
100
AcDbLine
 10
44.1177941085
 20
48.8007750933
 30
0.0
 11
44.2127939977
 21
48.8007750933
 31
0.0
  0
ARC
  5
390
330
1F
100
AcDbEntity
  8
0
  6
Continuous
 62
     7
370
    30
100
AcDbCircle
 10
44.1177941234
 20
48.7857750933
 30
0.0
 40
0.0150000000000006
100
AcDbArc
 50
90.0
 51
179.9999999997
  0
LINE
  5
391
330
1F
100
AcDbEntity
  8
0
  6
Continuous
 62
     7
370
    30
100
AcDbLine
 10
44.1027940951
 20
47.5037750897
 30
0.0
 11
44.1027940951
 21
48.7857750937
 31
0.0
  0
ARC
  5
392
330
1F
100
AcDbEntity
  8
0
  6
Continuous
 62
     7
370
    30
100
AcDbCircle
 10
44.1177941234
 20
47.5037750933
 30
0.0
 40
0.0150000000000006
100
AcDbArc
 50
180.0
 51
270.0
  0
LINE
  5
393
330
1F
100
AcDbEntity
  8
0
  6
Continuous
 62
     7
370
    30
100
AcDbLine
 10
44.2127939977
 20
47.4887750763
 30
0.0
 11
44.1177941085
 21
47.4887750763
 31
0.0
  0
ARC
  5
394
330
1F
100
AcDbEntity
  8
0
  6
Continuous
 62
     7
370
    30
100
AcDbCircle
 10
44.2127941234
 20
47.5037750933
 30
0.0
 40
0.0150000000000006
100
AcDbArc
 50
270.0
 51
0.0000000003
  0
LINE
  5
395
330
1F
100
AcDbEntity
  8
0
  6
Continuous
 62
     7
370
    30
100
AcDbLine
 10
44.2277940111
 20
47.785775092
 30
0.0
 11
44.2277940111
 21
47.5037750897
 31
0.0
  0
ARC
  5
396
330
1F
100
AcDbEntity
  8
0
  6
Continuous
 62
     7
370
    30
100
AcDbCircle
 10
44.2427941234
 20
47.7857750933
 30
0.0
 40
0.0150000000000006
100
AcDbArc
 50
90.0
 51
179.9999999997
  0
LINE
  5
397
330
1F
100
AcDbEntity
  8
0
  6
Continuous
 62
     7
370
    30
100
AcDbLine
 10
44.2747942682
 20
47.8007751054
 30
0.0
 11
44.2427940245
 21
47.8007751054
 31
0.0
  0
ARC
  5
398
330
1F
100
AcDbEntity
  8
0
  6
Continuous
 62
     7
370
    30
100
AcDbCircle
 10
44.2747941234
 20
47.7857750933
 30
0.0
 40
0.0150000000000006
100
AcDbArc
 50
0.0000000003
 51
90.0
  0
LINE
  5
399
330
1F
100
AcDbEntity
  8
0
  6
Continuous
 62
     7
370
    30
100
AcDbLine
 10
44.2897939882
 20
47.3659883347
 30
0.0
 11
44.2897939882
 21
47.785775092
 31
0.0
  0
ARC
  5
39A
330
1F
100
AcDbEntity
  8
0
  6
Continuous
 62
     7
370
    30
100
AcDbCircle
 10
44.3047941234
 20
47.3659882967
 30
0.0
 40
0.0150000000000078
100
AcDbArc
 50
180.0
 51
225.0
  0
LINE
  5
39B
330
1F
100
AcDbEntity
  8
0
  6
Continuous
 62
     7
370
    30
100
AcDbLine
 10
44.4034006758
 20
47.2461684789
 30
0.0
 11
44.2941874842
 21
47.3553816706
 31
0.0
  0
ARC
  5
39C
330
1F
100
AcDbEntity
  8
0
  6
Continuous
 62
     7
370
    30
100
AcDbCircle
 10
44.4140073268
 20
47.2567750933
 30
0.0
 40
0.0150000000000006
100
AcDbArc
 50
225.0
 51
270.0
  0
LINE
  5
39D
330
1F
100
AcDbEntity
  8
0
  6
Continuous
 62
     7
370
    30
100
AcDbLine
 10
45.0247940575
 20
47.2417751297
 30
0.0
 11
44.4140071933
 21
47.2417751297
 31
0.0
  0
LINE
  5
39E
330
1F
100
AcDbEntity
  8
0
  6
Continuous
 62
     7
370
    30
100
AcDbLine
 10
45.0397940708
 20
47.1947751659
 30
0.0
 11
45.0397940708
 21
47.2267751163
 31
0.0
  0
ARC
  5
39F
330
1F
100
AcDbEntity
  8
0
  6
Continuous
 62
     7
370
    30
100
AcDbCircle
 10
45.0247941234
 20
47.1947750933
 30
0.0
 40
0.0150000000000077
100
AcDbArc
 50
270.0
 51
0.0000000003
  0
LINE
  5
3A0
330
1F
100
AcDbEntity
  8
0
  6
Continuous
 62
     7
370
    30
100
AcDbLine
 10
43.429794003
 20
47.1797751526
 30
0.0
 11
45.0247940575
 21
47.1797751526
 31
0.0
  0
LINE
  5
3A1
330
1F
100
AcDbEntity
  8
0
  6
Continuous
 62
     7
370
    30
100
AcDbLine
 10
43.4147939896
 20
47.2267751163
 30
0.0
 11
43.4147939896
 21
47.1947751659
 31
0.0
  0
ARC
  5
3A2
330
1F
100
AcDbEntity
  8
0
  6
Continuous
 62
     7
370
    30
100
AcDbCircle
 10
43.4297941234
 20
47.2267750933
 30
0.0
 40
0.0150000000000077
100
AcDbArc
 50
90.0
 51
179.9999999997
  0
LINE
  5
3A3
330
1F
100
AcDbEntity
  8
0
  6
Continuous
 62
     7
370
    30
100
AcDbLine
 10
43.9607942422
 20
47.2417751297
 30
0.0
 11
43.429794003
 21
47.2417751297
 31
0.0
  0
ARC
  5
3A4
330
1F
100
AcDbEntity
  8
0
  6
Continuous
 62
     7
370
    30
100
AcDbCircle
 10
43.9607941234
 20
47.2567750933
 30
0.0
 40
0.0150000000000006
100
AcDbArc
 50
270.0
 51
0.0000000003
  0
LINE
  5
3A5
330
1F
100
AcDbEntity
  8
0
  6
Continuous
 62
     7
370
    30
100
AcDbLine
 10
43.9757942556
 20
47.2897750552
 30
0.0
 11
43.9757942556
 21
47.2567751431
 31
0.0
  0
ARC
  5
3A6
330
1F
100
AcDbEntity
  8
0
  6
Continuous
 62
     7
370
    30
100
AcDbCircle
 10
43.9907941234
 20
47.2897750933
 30
0.0
 40
0.0150000000000077
100
AcDbArc
 50
90.0
 51
179.9999999997
  0
LINE
  5
3A7
330
1F
100
AcDbEntity
  8
0
  6
Continuous
 62
     7
370
    30
100
AcDbLine
 10
44.0227942193
 20
47.3047750686
 30
0.0
 11
43.990794269
 21
47.3047750686
 31
0.0
  0
ARC
  5
3A8
330
1F
100
AcDbEntity
  8
0
  6
Continuous
 62
     7
370
    30
100
AcDbCircle
 10
44.0227941234
 20
47.2897750933
 30
0.0
 40
0.0150000000000077
100
AcDbArc
 50
0.0000000003
 51
90.0
  0
LINE
  5
3A9
330
1F
100
AcDbEntity
  8
0
  6
Continuous
 62
     7
370
    30
100
AcDbLine
 10
44.0377942327
 20
47.2567751431
 30
0.0
 11
44.0377942327
 21
47.2897750552
 31
0.0
  0
ARC
  5
3AA
330
1F
100
AcDbEntity
  8
0
  6
Continuous
 62
     7
370
    30
100
AcDbCircle
 10
44.0527941234
 20
47.2567750933
 30
0.0
 40
0.0150000000000006
100
AcDbArc
 50
180.0
 51
270.0
  0
LINE
  5
3AB
330
1F
100
AcDbEntity
  8
0
  6
Continuous
 62
     7
370
    30
100
AcDbLine
 10
44.2718287024
 20
47.2417751297
 30
0.0
 11
44.0527942461
 21
47.2417751297
 31
0.0
  0
ARC
  5
3AC
330
1F
100
AcDbEntity
  8
0
  6
Continuous
 62
     7
370
    30
100
AcDbCircle
 10
44.2718286113
 20
47.2617750933
 30
0.0
 40
0.0200000000000031
100
AcDbArc
 50
270.0
 51
45.0
  0
LINE
  5
3AD
330
1F
100
AcDbEntity
  8
0
  6
Continuous
 62
     7
370
    30
100
AcDbLine
 10
44.232187507
 20
47.3297004873
 30
0.0
 11
44.2859707257
 21
47.2759172686
 31
0.0
  0
ARC
  5
3AE
330
1F
100
AcDbEntity
  8
0
  6
Continuous
 62
     7
370
    30
100
AcDbCircle
 10
44.2427941234
 20
47.3403070559
 30
0.0
 40
0.0150000000000077
100
AcDbArc
 50
179.9999999997
 51
225.0
  0
LINE
  5
3AF
330
1F
100
AcDbEntity
  8
0
  6
Continuous
 62
     7
370
    30
100
AcDbLine
 10
44.2277940111
 20
47.4117750858
 30
0.0
 11
44.2277940111
 21
47.3403070048
 31
0.0
  0
ARC
  5
3B0
330
1F
100
AcDbEntity
  8
0
  6
Continuous
 62
     7
370
    30
100
AcDbCircle
 10
44.2127941234
 20
47.4117750933
 30
0.0
 40
0.0150000000000077
100
AcDbArc
 50
0.0
 51
90.0
  0
LINE
  5
3B1
330
1F
100
AcDbEntity
  8
0
  6
Continuous
 62
     7
370
    30
100
AcDbLine
 10
43.9307942154
 20
47.4267750992
 30
0.0
 11
44.2127939977
 21
47.4267750992
 31
0.0
  0
ARC
  5
3B2
330
1F
100
AcDbEntity
  8
0
  6
Continuous
 62
     7
370
    30
100
AcDbCircle
 10
43.9307941234
 20
47.4417750933
 30
0.0
 40
0.0150000000000006
100
AcDbArc
 50
179.9999999997
 51
270.0
  0
LINE
  5
3B3
330
1F
100
AcDbEntity
  8
0
  6
Continuous
 62
     7
370
    30
100
AcDbLine
 10
43.915794202
 20
47.541775104
 30
0.0
 11
43.915794202
 21
47.4417751126
 31
0.0
  0
ARC
  5
3B4
330
1F
100
AcDbEntity
  8
0
  6
Continuous
 62
     7
370
    30
100
AcDbCircle
 10
43.9307941234
 20
47.5417750933
 30
0.0
 40
0.0150000000000006
100
AcDbArc
 50
90.0
 51
179.9999999997
  0
LINE
  5
3B5
330
1F
100
AcDbEntity
  8
0
  6
Continuous
 62
     7
370
    30
100
AcDbLine
 10
43.9627941658
 20
47.5567751174
 30
0.0
 11
43.9307942154
 21
47.5567751174
 31
0.0
  0
ARC
  5
3B6
330
1F
100
AcDbEntity
  8
0
  6
Continuous
 62
     7
370
    30
100
AcDbCircle
 10
43.9627941234
 20
47.5417750933
 30
0.0
 40
0.0150000000000077
100
AcDbArc
 50
0.0000000003
 51
90.0
  0
LINE
  5
3B7
330
1F
100
AcDbEntity
  8
0
  6
Continuous
 62
     7
370
    30
100
AcDbLine
 10
43.9777941792
 20
47.5037750897
 30
0.0
 11
43.9777941792
 21
47.541775104
 31
0.0
  0
ARC
  5
3B8
330
1F
100
AcDbEntity
  8
0
  6
Continuous
 62
     7
370
    30
100
AcDbCircle
 10
43.9927941234
 20
47.5037750933
 30
0.0
 40
0.0150000000000006
100
AcDbArc
 50
180.0
 51
270.0
  0
LINE
  5
3B9
330
1F
100
AcDbEntity
  8
0
  6
Continuous
 62
     7
370
    30
100
AcDbLine
 10
44.0257941047
 20
47.4887750763
 30
0.0
 11
43.9927941925
 21
47.4887750763
 31
0.0
  0
ARC
  5
3BA
330
1F
100
AcDbEntity
  8
0
  6
Continuous
 62
     7
370
    30
100
AcDbCircle
 10
44.0257941234
 20
47.5037750933
 30
0.0
 40
0.0150000000000006
100
AcDbArc
 50
270.0
 51
0.0000000003
  0
LINE
  5
3BB
330
1F
100
AcDbEntity
  8
0
  6
Continuous
 62
     7
370
    30
100
AcDbLine
 10
44.040794118
 20
48.0987750829
 30
0.0
 11
44.040794118
 21
47.5037750897
 31
0.0
  0
ARC
  5
3BC
330
1F
100
AcDbEntity
  8
0
  6
Continuous
 62
     7
370
    30
100
AcDbCircle
 10
44.0257941234
 20
48.0987750933
 30
0.0
 40
0.0150000000000077
100
AcDbArc
 50
0.0
 51
90.0
  0
LINE
  5
3BD
330
1F
100
AcDbEntity
  8
0
  6
Continuous
 62
     7
370
    30
100
AcDbLine
 10
43.9927941925
 20
48.1137750962
 30
0.0
 11
44.0257941047
 21
48.1137750962
 31
0.0
  0
ARC
  5
3BE
330
1F
100
AcDbEntity
  8
0
  6
Continuous
 62
     7
370
    30
100
AcDbCircle
 10
43.9927941234
 20
48.0987750933
 30
0.0
 40
0.0150000000000077
100
AcDbArc
 50
90.0
 51
179.9999999997
  0
LINE
  5
3BF
330
1F
100
AcDbEntity
  8
0
  6
Continuous
 62
     7
370
    30
100
AcDbLine
 10
43.9777941792
 20
48.0607750685
 30
0.0
 11
43.9777941792
 21
48.0987750829
 31
0.0
  0
ARC
  5
3C0
330
1F
100
AcDbEntity
  8
0
  6
Continuous
 62
     7
370
    30
100
AcDbCircle
 10
43.9627941234
 20
48.0607750933
 30
0.0
 40
0.0150000000000006
100
AcDbArc
 50
270.0
 51
0.0000000003
  0
LINE
  5
3C1
330
1F
100
AcDbEntity
  8
0
  6
Continuous
 62
     7
370
    30
100
AcDbLine
 10
43.9307942154
 20
48.0457751285
 30
0.0
 11
43.9627941658
 21
48.0457751285
 31
0.0
  0
ARC
  5
3C2
330
1F
100
AcDbEntity
  8
0
  6
Continuous
 62
     7
370
    30
100
AcDbCircle
 10
43.9307941234
 20
48.0607750933
 30
0.0
 40
0.0150000000000006
100
AcDbArc
 50
179.9999999997
 51
270.0
  0
LINE
  5
3C3
330
1F
100
AcDbEntity
  8
0
  6
Continuous
 62
     7
370
    30
100
AcDbLine
 10
43.915794202
 20
48.2287751011
 30
0.0
 11
43.915794202
 21
48.0607750685
 31
0.0
  0
ARC
  5
3C4
330
1F
100
AcDbEntity
  8
0
  6
Continuous
 62
     7
370
    30
100
AcDbCircle
 10
43.9307941234
 20
48.2287750933
 30
0.0
 40
0.0150000000000077
100
AcDbArc
 50
90.0
 51
179.9999999997
  0
LINE
  5
3C5
330
1F
100
AcDbEntity
  8
0
  6
Continuous
 62
     7
370
    30
100
AcDbLine
 10
43.9627941658
 20
48.2437750778
 30
0.0
 11
43.9307942154
 21
48.2437750778
 31
0.0
  0
ARC
  5
3C6
330
1F
100
AcDbEntity
  8
0
  6
Continuous
 62
     7
370
    30
100
AcDbCircle
 10
43.9627941234
 20
48.2287750933
 30
0.0
 40
0.0150000000000006
100
AcDbArc
 50
0.0000000003
 51
90.0
  0
LINE
  5
3C7
330
1F
100
AcDbEntity
  8
0
  6
Continuous
 62
     7
370
    30
100
AcDbLine
 10
43.9777941792
 20
48.1907750867
 30
0.0
 11
43.9777941792
 21
48.2287751011
 31
0.0
  0
ARC
  5
3C8
330
1F
100
AcDbEntity
  8
0
  6
Continuous
 62
     7
370
    30
100
AcDbCircle
 10
43.9927941234
 20
48.1907750933
 30
0.0
 40
0.0150000000000006
100
AcDbArc
 50
180.0
 51
270.0
  0
LINE
  5
3C9
330
1F
100
AcDbEntity
  8
0
  6
Continuous
 62
     7
370
    30
100
AcDbLine
 10
44.0257941047
 20
48.1757750734
 30
0.0
 11
43.9927941925
 21
48.1757750734
 31
0.0
  0
ARC
  5
3CA
330
1F
100
AcDbEntity
  8
0
  6
Continuous
 62
     7
370
    30
100
AcDbCircle
 10
44.0257941234
 20
48.1907750933
 30
0.0
 40
0.0150000000000006
100
AcDbArc
 50
270.0
 51
0.0000000003
  0
LINE
  5
3CB
330
1F
100
AcDbEntity
  8
0
  6
Continuous
 62
     7
370
    30
100
AcDbLine
 10
44.040794118
 20
48.7857750937
 30
0.0
 11
44.040794118
 21
48.1907750867
 31
0.0
  0
ARC
  5
3CC
330
1F
100
AcDbEntity
  8
0
  6
Continuous
 62
     7
370
    30
100
AcDbCircle
 10
44.0257941234
 20
48.7857750933
 30
0.0
 40
0.0150000000000006
100
AcDbArc
 50
0.0
 51
90.0
  0
LINE
  5
3CD
330
1F
100
AcDbEntity
  8
0
  6
Continuous
 62
     7
370
    30
100
AcDbLine
 10
43.9927941925
 20
48.8007750933
 30
0.0
 11
44.0257941047
 21
48.8007750933
 31
0.0
  0
ARC
  5
3CE
330
1F
100
AcDbEntity
  8
0
  6
Continuous
 62
     7
370
    30
100
AcDbCircle
 10
43.9927941234
 20
48.7857750933
 30
0.0
 40
0.0150000000000006
100
AcDbArc
 50
90.0
 51
179.9999999997
  0
LINE
  5
3CF
330
1F
100
AcDbEntity
  8
0
  6
Continuous
 62
     7
370
    30
100
AcDbLine
 10
43.9777941792
 20
48.7477750931
 30
0.0
 11
43.9777941792
 21
48.7857750937
 31
0.0
  0
ARC
  5
3D0
330
1F
100
AcDbEntity
  8
0
  6
Continuous
 62
     7
370
    30
100
AcDbCircle
 10
43.9627941234
 20
48.7477750933
 30
0.0
 40
0.0150000000000077
100
AcDbArc
 50
270.0
 51
0.0000000003
  0
LINE
  5
3D1
330
1F
100
AcDbEntity
  8
0
  6
Continuous
 62
     7
370
    30
100
AcDbLine
 10
43.9307942154
 20
48.7327750934
 30
0.0
 11
43.9627941658
 21
48.7327750934
 31
0.0
  0
ARC
  5
3D2
330
1F
100
AcDbEntity
  8
0
  6
Continuous
 62
     7
370
    30
100
AcDbCircle
 10
43.9307941234
 20
48.7477750933
 30
0.0
 40
0.0150000000000006
100
AcDbArc
 50
179.9999999997
 51
270.0
  0
LINE
  5
3D3
330
1F
100
AcDbEntity
  8
0
  6
Continuous
 62
     7
370
    30
100
AcDbLine
 10
43.915794202
 20
48.8477750937
 30
0.0
 11
43.915794202
 21
48.7477750931
 31
0.0
  0
ARC
  5
3D4
330
1F
100
AcDbEntity
  8
0
  6
Continuous
 62
     7
370
    30
100
AcDbCircle
 10
43.9307941234
 20
48.8477750933
 30
0.0
 40
0.0150000000000077
100
AcDbArc
 50
90.0
 51
179.9999999997
  0
ARC
  5
3D5
330
1F
100
AcDbEntity
  8
0
  6
Continuous
 62
     7
370
    30
100
AcDbCircle
 10
45.0247941234
 20
47.2267750933
 30
0.0
 40
0.0150000000000077
100
AcDbArc
 50
0.0000000003
 51
90.0
  0
ARC
  5
3D6
330
1F
100
AcDbEntity
  8
0
  6
Continuous
 62
     7
370
    30
100
AcDbCircle
 10
43.4297941234
 20
47.1947750933
 30
0.0
 40
0.0150000000000006
100
AcDbArc
 50
179.9999999997
 51
270.0
  0
LINE
  5
3D7
330
1F
100
AcDbEntity
  8
0
  6
Continuous
 62
     7
370
    30
100
AcDbLine
 10
51.0807940447
 20
48.7477750931
 30
0.0
 11
51.0807940447
 21
48.8477750937
 31
0.0
  0
ARC
  5
3D8
330
1F
100
AcDbEntity
  8
0
  6
Continuous
 62
     7
370
    30
100
AcDbCircle
 10
51.0657941234
 20
48.7477750933
 30
0.0
 40
0.0150000000000006
100
AcDbArc
 50
270.0
 51
0.0
  0
LINE
  5
3D9
330
1F
100
AcDbEntity
  8
0
  6
Continuous
 62
     7
370
    30
100
AcDbLine
 10
51.033794081
 20
48.7327750934
 30
0.0
 11
51.0657940313
 21
48.7327750934
 31
0.0
  0
ARC
  5
3DA
330
1F
100
AcDbEntity
  8
0
  6
Continuous
 62
     7
370
    30
100
AcDbCircle
 10
51.0337941234
 20
48.7477750933
 30
0.0
 40
0.0150000000000077
100
AcDbArc
 50
180.0
 51
270.0
  0
LINE
  5
3DB
330
1F
100
AcDbEntity
  8
0
  6
Continuous
 62
     7
370
    30
100
AcDbLine
 10
51.0187940676
 20
48.7857750937
 30
0.0
 11
51.0187940676
 21
48.7477750931
 31
0.0
  0
ARC
  5
3DC
330
1F
100
AcDbEntity
  8
0
  6
Continuous
 62
     7
370
    30
100
AcDbCircle
 10
51.0037941234
 20
48.7857750933
 30
0.0
 40
0.0150000000000006
100
AcDbArc
 50
0.0
 51
90.0
  0
LINE
  5
3DD
330
1F
100
AcDbEntity
  8
0
  6
Continuous
 62
     7
370
    30
100
AcDbLine
 10
50.9707941421
 20
48.8007750933
 30
0.0
 11
51.0037940542
 21
48.8007750933
 31
0.0
  0
ARC
  5
3DE
330
1F
100
AcDbEntity
  8
0
  6
Continuous
 62
     7
370
    30
100
AcDbCircle
 10
50.9707941234
 20
48.7857750933
 30
0.0
 40
0.0150000000000006
100
AcDbArc
 50
90.0
 51
180.0000000001
  0
LINE
  5
3DF
330
1F
100
AcDbEntity
  8
0
  6
Continuous
 62
     7
370
    30
100
AcDbLine
 10
50.9557941287
 20
48.1907750867
 30
0.0
 11
50.9557941287
 21
48.7857750937
 31
0.0
  0
ARC
  5
3E0
330
1F
100
AcDbEntity
  8
0
  6
Continuous
 62
     7
370
    30
100
AcDbCircle
 10
50.9707941234
 20
48.1907750933
 30
0.0
 40
0.0150000000000006
100
AcDbArc
 50
180.0
 51
270.0
  0
LINE
  5
3E1
330
1F
100
AcDbEntity
  8
0
  6
Continuous
 62
     7
370
    30
100
AcDbLine
 10
51.0037940542
 20
48.1757750734
 30
0.0
 11
50.9707941421
 21
48.1757750734
 31
0.0
  0
ARC
  5
3E2
330
1F
100
AcDbEntity
  8
0
  6
Continuous
 62
     7
370
    30
100
AcDbCircle
 10
51.0037941234
 20
48.1907750933
 30
0.0
 40
0.0150000000000006
100
AcDbArc
 50
270.0
 51
0.0
  0
LINE
  5
3E3
330
1F
100
AcDbEntity
  8
0
  6
Continuous
 62
     7
370
    30
100
AcDbLine
 10
51.0187940676
 20
48.2287751011
 30
0.0
 11
51.0187940676
 21
48.1907750867
 31
0.0
  0
ARC
  5
3E4
330
1F
100
AcDbEntity
  8
0
  6
Continuous
 62
     7
370
    30
100
AcDbCircle
 10
51.0337941234
 20
48.2287750933
 30
0.0
 40
0.0150000000000006
100
AcDbArc
 50
90.0
 51
180.0
  0
LINE
  5
3E5
330
1F
100
AcDbEntity
  8
0
  6
Continuous
 62
     7
370
    30
100
AcDbLine
 10
51.0657940313
 20
48.2437750778
 30
0.0
 11
51.033794081
 21
48.2437750778
 31
0.0
  0
ARC
  5
3E6
330
1F
100
AcDbEntity
  8
0
  6
Continuous
 62
     7
370
    30
100
AcDbCircle
 10
51.0657941234
 20
48.2287750933
 30
0.0
 40
0.0150000000000077
100
AcDbArc
 50
0.0
 51
90.0
  0
LINE
  5
3E7
330
1F
100
AcDbEntity
  8
0
  6
Continuous
 62
     7
370
    30
100
AcDbLine
 10
51.0807940447
 20
48.0607750685
 30
0.0
 11
51.0807940447
 21
48.2287751011
 31
0.0
  0
ARC
  5
3E8
330
1F
100
AcDbEntity
  8
0
  6
Continuous
 62
     7
370
    30
100
AcDbCircle
 10
51.0657941234
 20
48.0607750933
 30
0.0
 40
0.0149999999999935
100
AcDbArc
 50
270.0
 51
0.0
  0
LINE
  5
3E9
330
1F
100
AcDbEntity
  8
0
  6
Continuous
 62
     7
370
    30
100
AcDbLine
 10
51.033794081
 20
48.0457751285
 30
0.0
 11
51.0657940313
 21
48.0457751285
 31
0.0
  0
ARC
  5
3EA
330
1F
100
AcDbEntity
  8
0
  6
Continuous
 62
     7
370
    30
100
AcDbCircle
 10
51.0337941234
 20
48.0607750933
 30
0.0
 40
0.0150000000000006
100
AcDbArc
 50
180.0
 51
270.0
  0
LINE
  5
3EB
330
1F
100
AcDbEntity
  8
0
  6
Continuous
 62
     7
370
    30
100
AcDbLine
 10
51.0187940676
 20
48.0987750829
 30
0.0
 11
51.0187940676
 21
48.0607750685
 31
0.0
  0
ARC
  5
3EC
330
1F
100
AcDbEntity
  8
0
  6
Continuous
 62
     7
370
    30
100
AcDbCircle
 10
51.0037941234
 20
48.0987750933
 30
0.0
 40
0.0150000000000006
100
AcDbArc
 50
0.0
 51
90.0
  0
LINE
  5
3ED
330
1F
100
AcDbEntity
  8
0
  6
Continuous
 62
     7
370
    30
100
AcDbLine
 10
50.9707941421
 20
48.1137750962
 30
0.0
 11
51.0037940542
 21
48.1137750962
 31
0.0
  0
ARC
  5
3EE
330
1F
100
AcDbEntity
  8
0
  6
Continuous
 62
     7
370
    30
100
AcDbCircle
 10
50.9707941234
 20
48.0987750933
 30
0.0
 40
0.0150000000000006
100
AcDbArc
 50
90.0
 51
180.0
  0
LINE
  5
3EF
330
1F
100
AcDbEntity
  8
0
  6
Continuous
 62
     7
370
    30
100
AcDbLine
 10
50.9557941287
 20
47.5037750897
 30
0.0
 11
50.9557941287
 21
48.0987750829
 31
0.0
  0
ARC
  5
3F0
330
1F
100
AcDbEntity
  8
0
  6
Continuous
 62
     7
370
    30
100
AcDbCircle
 10
50.9707941234
 20
47.5037750933
 30
0.0
 40
0.0150000000000077
100
AcDbArc
 50
180.0
 51
270.0
  0
LINE
  5
3F1
330
1F
100
AcDbEntity
  8
0
  6
Continuous
 62
     7
370
    30
100
AcDbLine
 10
51.0037940542
 20
47.4887750763
 30
0.0
 11
50.9707941421
 21
47.4887750763
 31
0.0
  0
ARC
  5
3F2
330
1F
100
AcDbEntity
  8
0
  6
Continuous
 62
     7
370
    30
100
AcDbCircle
 10
51.0037941234
 20
47.5037750933
 30
0.0
 40
0.0150000000000077
100
AcDbArc
 50
270.0
 51
0.0
  0
LINE
  5
3F3
330
1F
100
AcDbEntity
  8
0
  6
Continuous
 62
     7
370
    30
100
AcDbLine
 10
51.0187940676
 20
47.541775104
 30
0.0
 11
51.0187940676
 21
47.5037750897
 31
0.0
  0
ARC
  5
3F4
330
1F
100
AcDbEntity
  8
0
  6
Continuous
 62
     7
370
    30
100
AcDbCircle
 10
51.0337941234
 20
47.5417750933
 30
0.0
 40
0.0150000000000006
100
AcDbArc
 50
90.0
 51
180.0
  0
LINE
  5
3F5
330
1F
100
AcDbEntity
  8
0
  6
Continuous
 62
     7
370
    30
100
AcDbLine
 10
51.0657940313
 20
47.5567751174
 30
0.0
 11
51.033794081
 21
47.5567751174
 31
0.0
  0
ARC
  5
3F6
330
1F
100
AcDbEntity
  8
0
  6
Continuous
 62
     7
370
    30
100
AcDbCircle
 10
51.0657941234
 20
47.5417750933
 30
0.0
 40
0.0150000000000006
100
AcDbArc
 50
0.0
 51
90.0
  0
LINE
  5
3F7
330
1F
100
AcDbEntity
  8
0
  6
Continuous
 62
     7
370
    30
100
AcDbLine
 10
51.0807940447
 20
47.4417751126
 30
0.0
 11
51.0807940447
 21
47.541775104
 31
0.0
  0
ARC
  5
3F8
330
1F
100
AcDbEntity
  8
0
  6
Continuous
 62
     7
370
    30
100
AcDbCircle
 10
51.0657941234
 20
47.4417750933
 30
0.0
 40
0.0150000000000077
100
AcDbArc
 50
270.0
 51
0.0
  0
LINE
  5
3F9
330
1F
100
AcDbEntity
  8
0
  6
Continuous
 62
     7
370
    30
100
AcDbLine
 10
50.783794249
 20
47.4267750992
 30
0.0
 11
51.0657940313
 21
47.4267750992
 31
0.0
  0
ARC
  5
3FA
330
1F
100
AcDbEntity
  8
0
  6
Continuous
 62
     7
370
    30
100
AcDbCircle
 10
50.7837941234
 20
47.4117750933
 30
0.0
 40
0.0150000000000006
100
AcDbArc
 50
90.0
 51
180.0
  0
LINE
  5
3FB
330
1F
100
AcDbEntity
  8
0
  6
Continuous
 62
     7
370
    30
100
AcDbLine
 10
50.7687942356
 20
47.3403070048
 30
0.0
 11
50.7687942356
 21
47.4117750858
 31
0.0
  0
ARC
  5
3FC
330
1F
100
AcDbEntity
  8
0
  6
Continuous
 62
     7
370
    30
100
AcDbCircle
 10
50.7537941234
 20
47.3403070559
 30
0.0
 40
0.0150000000000006
100
AcDbArc
 50
315.0
 51
0.0
  0
LINE
  5
3FD
330
1F
100
AcDbEntity
  8
0
  6
Continuous
 62
     7
370
    30
100
AcDbLine
 10
50.710617521
 20
47.2759172686
 30
0.0
 11
50.7644007397
 21
47.3297004873
 31
0.0
  0
ARC
  5
3FE
330
1F
100
AcDbEntity
  8
0
  6
Continuous
 62
     7
370
    30
100
AcDbCircle
 10
50.7247596355
 20
47.2617750933
 30
0.0
 40
0.020000000000007
100
AcDbArc
 50
135.0
 51
270.0
  0
LINE
  5
3FF
330
1F
100
AcDbEntity
  8
0
  6
Continuous
 62
     7
370
    30
100
AcDbLine
 10
50.9437940007
 20
47.2417751297
 30
0.0
 11
50.7247595443
 21
47.2417751297
 31
0.0
  0
ARC
  5
400
330
1F
100
AcDbEntity
  8
0
  6
Continuous
 62
     7
370
    30
100
AcDbCircle
 10
50.9437941234
 20
47.2567750933
 30
0.0
 40
0.0150000000000006
100
AcDbArc
 50
270.0
 51
0.0
  0
LINE
  5
401
330
1F
100
AcDbEntity
  8
0
  6
Continuous
 62
     7
370
    30
100
AcDbLine
 10
50.958794014
 20
47.2897750552
 30
0.0
 11
50.958794014
 21
47.2567751431
 31
0.0
  0
ARC
  5
402
330
1F
100
AcDbEntity
  8
0
  6
Continuous
 62
     7
370
    30
100
AcDbCircle
 10
50.9737941234
 20
47.2897750933
 30
0.0
 40
0.0150000000000077
100
AcDbArc
 50
90.0
 51
180.0
  0
LINE
  5
403
330
1F
100
AcDbEntity
  8
0
  6
Continuous
 62
     7
370
    30
100
AcDbLine
 10
51.0057939778
 20
47.3047750686
 30
0.0
 11
50.9737940274
 21
47.3047750686
 31
0.0
  0
ARC
  5
404
330
1F
100
AcDbEntity
  8
0
  6
Continuous
 62
     7
370
    30
100
AcDbCircle
 10
51.0057941234
 20
47.2897750933
 30
0.0
 40
0.0150000000000077
100
AcDbArc
 50
0.0
 51
90.0
  0
LINE
  5
405
330
1F
100
AcDbEntity
  8
0
  6
Continuous
 62
     7
370
    30
100
AcDbLine
 10
51.0207939912
 20
47.2567751431
 30
0.0
 11
51.0207939912
 21
47.2897750552
 31
0.0
  0
ARC
  5
406
330
1F
100
AcDbEntity
  8
0
  6
Continuous
 62
     7
370
    30
100
AcDbCircle
 10
51.0357941234
 20
47.2567750933
 30
0.0
 40
0.0150000000000077
100
AcDbArc
 50
180.0
 51
270.0
  0
LINE
  5
407
330
1F
100
AcDbEntity
  8
0
  6
Continuous
 62
     7
370
    30
100
AcDbLine
 10
51.5667942437
 20
47.2417751297
 30
0.0
 11
51.0357940045
 21
47.2417751297
 31
0.0
  0
ARC
  5
408
330
1F
100
AcDbEntity
  8
0
  6
Continuous
 62
     7
370
    30
100
AcDbCircle
 10
51.5667941234
 20
47.2267750933
 30
0.0
 40
0.0149999999999935
100
AcDbArc
 50
0.0
 51
90.0
  0
ARC
  5
409
330
1F
100
AcDbEntity
  8
0
  6
Continuous
 62
     7
370
    30
100
AcDbCircle
 10
49.9717941234
 20
47.2267750933
 30
0.0
 40
0.0150000000000006
100
AcDbArc
 50
90.0
 51
180.0
  0
LINE
  5
40A
330
1F
100
AcDbEntity
  8
0
  6
Continuous
 62
     7
370
    30
100
AcDbLine
 10
50.5825810534
 20
47.2417751297
 30
0.0
 11
49.9717941893
 21
47.2417751297
 31
0.0
  0
ARC
  5
40B
330
1F
100
AcDbEntity
  8
0
  6
Continuous
 62
     7
370
    30
100
AcDbCircle
 10
50.5825809199
 20
47.2567750933
 30
0.0
 40
0.0150000000000006
100
AcDbArc
 50
270.0
 51
315.0
  0
LINE
  5
40C
330
1F
100
AcDbEntity
  8
0
  6
Continuous
 62
     7
370
    30
100
AcDbLine
 10
50.7024007626
 20
47.3553816706
 30
0.0
 11
50.5931875709
 21
47.2461684789
 31
0.0
  0
ARC
  5
40D
330
1F
100
AcDbEntity
  8
0
  6
Continuous
 62
     7
370
    30
100
AcDbCircle
 10
50.6917941234
 20
47.3659882967
 30
0.0
 40
0.0150000000000006
100
AcDbArc
 50
315.0
 51
0.0
  0
LINE
  5
40E
330
1F
100
AcDbEntity
  8
0
  6
Continuous
 62
     7
370
    30
100
AcDbLine
 10
50.7067942585
 20
47.785775092
 30
0.0
 11
50.7067942585
 21
47.3659883347
 31
0.0
  0
ARC
  5
40F
330
1F
100
AcDbEntity
  8
0
  6
Continuous
 62
     7
370
    30
100
AcDbCircle
 10
50.7217941234
 20
47.7857750933
 30
0.0
 40
0.0150000000000077
100
AcDbArc
 50
90.0
 51
180.0
  0
LINE
  5
410
330
1F
100
AcDbEntity
  8
0
  6
Continuous
 62
     7
370
    30
100
AcDbLine
 10
50.7537942222
 20
47.8007751054
 30
0.0
 11
50.7217939786
 21
47.8007751054
 31
0.0
  0
ARC
  5
411
330
1F
100
AcDbEntity
  8
0
  6
Continuous
 62
     7
370
    30
100
AcDbCircle
 10
50.7537941234
 20
47.7857750933
 30
0.0
 40
0.0150000000000006
100
AcDbArc
 50
0.0
 51
90.0
  0
LINE
  5
412
330
1F
100
AcDbEntity
  8
0
  6
Continuous
 62
     7
370
    30
100
AcDbLine
 10
50.7687942356
 20
47.5037750897
 30
0.0
 11
50.7687942356
 21
47.785775092
 31
0.0
  0
ARC
  5
413
330
1F
100
AcDbEntity
  8
0
  6
Continuous
 62
     7
370
    30
100
AcDbCircle
 10
50.7837941234
 20
47.5037750933
 30
0.0
 40
0.0150000000000077
100
AcDbArc
 50
180.0
 51
270.0
  0
LINE
  5
414
330
1F
100
AcDbEntity
  8
0
  6
Continuous
 62
     7
370
    30
100
AcDbLine
 10
50.8787941382
 20
47.4887750763
 30
0.0
 11
50.783794249
 21
47.4887750763
 31
0.0
  0
ARC
  5
415
330
1F
100
AcDbEntity
  8
0
  6
Continuous
 62
     7
370
    30
100
AcDbCircle
 10
50.8787941234
 20
47.5037750933
 30
0.0
 40
0.0150000000000006
100
AcDbArc
 50
270.0
 51
0.0
  0
LINE
  5
416
330
1F
100
AcDbEntity
  8
0
  6
Continuous
 62
     7
370
    30
100
AcDbLine
 10
50.8937941516
 20
48.7857750937
 30
0.0
 11
50.8937941516
 21
47.5037750897
 31
0.0
  0
ARC
  5
417
330
1F
100
AcDbEntity
  8
0
  6
Continuous
 62
     7
370
    30
100
AcDbCircle
 10
50.8787941234
 20
48.7857750933
 30
0.0
 40
0.0150000000000077
100
AcDbArc
 50
0.0
 51
90.0
  0
LINE
  5
418
330
1F
100
AcDbEntity
  8
0
  6
Continuous
 62
     7
370
    30
100
AcDbLine
 10
50.783794249
 20
48.8007750933
 30
0.0
 11
50.8787941382
 21
48.8007750933
 31
0.0
  0
ARC
  5
419
330
1F
100
AcDbEntity
  8
0
  6
Continuous
 62
     7
370
    30
100
AcDbCircle
 10
50.7837941234
 20
48.7857750933
 30
0.0
 40
0.0150000000000077
100
AcDbArc
 50
90.0
 51
180.0
  0
LINE
  5
41A
330
1F
100
AcDbEntity
  8
0
  6
Continuous
 62
     7
370
    30
100
AcDbLine
 10
50.7687942356
 20
48.6907750899
 30
0.0
 11
50.7687942356
 21
48.7857750937
 31
0.0
  0
ARC
  5
41B
330
1F
100
AcDbEntity
  8
0
  6
Continuous
 62
     7
370
    30
100
AcDbCircle
 10
50.7537941234
 20
48.6907750933
 30
0.0
 40
0.0150000000000077
100
AcDbArc
 50
270.0
 51
0.0
  0
LINE
  5
41C
330
1F
100
AcDbEntity
  8
0
  6
Continuous
 62
     7
370
    30
100
AcDbLine
 10
50.7217939786
 20
48.6757750948
 30
0.0
 11
50.7537942222
 21
48.6757750948
 31
0.0
  0
ARC
  5
41D
330
1F
100
AcDbEntity
  8
0
  6
Continuous
 62
     7
370
    30
100
AcDbCircle
 10
50.7217941234
 20
48.6907750933
 30
0.0
 40
0.0150000000000006
100
AcDbArc
 50
180.0
 51
270.0
  0
LINE
  5
41E
330
1F
100
AcDbEntity
  8
0
  6
Continuous
 62
     7
370
    30
100
AcDbLine
 10
50.7067942585
 20
48.8477750937
 30
0.0
 11
50.7067942585
 21
48.6907750899
 31
0.0
  0
ARC
  5
41F
330
1F
100
AcDbEntity
  8
0
  6
Continuous
 62
     7
370
    30
100
AcDbCircle
 10
50.7217941234
 20
48.8477750933
 30
0.0
 40
0.0150000000000077
100
AcDbArc
 50
90.0
 51
180.0
  0
LINE
  5
420
330
1F
100
AcDbEntity
  8
0
  6
Continuous
 62
     7
370
    30
100
AcDbLine
 10
51.0657940313
 20
48.8627750933
 30
0.0
 11
50.7217939786
 21
48.8627750933
 31
0.0
  0
ARC
  5
421
330
1F
100
AcDbEntity
  8
0
  6
Continuous
 62
     7
370
    30
100
AcDbCircle
 10
51.0657941234
 20
48.8477750933
 30
0.0
 40
0.0150000000000006
100
AcDbArc
 50
0.0
 51
90.0
  0
ARC
  5
422
330
1F
100
AcDbEntity
  8
0
  6
Continuous
 62
     7
370
    30
100
AcDbCircle
 10
51.5667941234
 20
47.1947750933
 30
0.0
 40
0.0150000000000006
100
AcDbArc
 50
270.0
 51
0.0
  0
ARC
  5
423
330
1F
100
AcDbEntity
  8
0
  6
Continuous
 62
     7
370
    30
100
AcDbCircle
 10
49.9717941234
 20
47.1947750933
 30
0.0
 40
0.0149999999999935
100
AcDbArc
 50
180.0
 51
270.0
  0
LINE
  5
424
330
1F
100
AcDbEntity
  8
0
  6
Continuous
 62
     7
370
    30
100
AcDbLine
 10
49.9567941759
 20
47.2267751163
 30
0.0
 11
49.9567941759
 21
47.1947751659
 31
0.0
  0
LINE
  5
425
330
1F
100
AcDbEntity
  8
0
  6
Continuous
 62
     7
370
    30
100
AcDbLine
 10
51.5817942571
 20
47.1947751659
 30
0.0
 11
51.5817942571
 21
47.2267751163
 31
0.0
  0
LINE
  5
426
330
1F
100
AcDbEntity
  8
0
  6
Continuous
 62
     7
370
    30
100
AcDbLine
 10
49.9717941893
 20
47.1797751526
 30
0.0
 11
51.5667942437
 21
47.1797751526
 31
0.0
  0
ARC
  5
427
330
1F
100
AcDbEntity
  8
0
  6
Continuous
 62
     7
370
    30
100
AcDbCircle
 10
47.3571941234
 20
48.7907080681
 30
0.0
 40
0.0148999999999972
100
AcDbArc
 50
90.0
 51
180.0
  0
LINE
  5
428
330
1F
100
AcDbEntity
  8
0
  6
Continuous
 62
     7
370
    30
100
AcDbLine
 10
47.3422941272
 20
48.6955080694
 30
0.0
 11
47.3422941272
 21
48.790708068
 31
0.0
  0
ARC
  5
429
330
1F
100
AcDbEntity
  8
0
  6
Continuous
 62
     7
370
    30
100
AcDbCircle
 10
47.3273941234
 20
48.6955080681
 30
0.0
 40
0.0149000000000044
100
AcDbArc
 50
270.0
 51
0.0
  0
LINE
  5
42A
330
1F
100
AcDbEntity
  8
0
  6
Continuous
 62
     7
370
    30
100
AcDbLine
 10
47.2941941212
 20
48.6806080723
 30
0.0
 11
47.327394121
 21
48.6806080723
 31
0.0
  0
ARC
  5
42B
330
1F
100
AcDbEntity
  8
0
  6
Continuous
 62
     7
370
    30
100
AcDbCircle
 10
47.2941941234
 20
48.6955080681
 30
0.0
 40
0.0149000000000044
100
AcDbArc
 50
180.0
 51
270.0
  0
LINE
  5
42C
330
1F
100
AcDbEntity
  8
0
  6
Continuous
 62
     7
370
    30
100
AcDbLine
 10
47.2792941149
 20
48.8527080692
 30
0.0
 11
47.2792941149
 21
48.6955080694
 31
0.0
  0
ARC
  5
42D
330
1F
100
AcDbEntity
  8
0
  6
Continuous
 62
     7
370
    30
100
AcDbCircle
 10
47.2941941234
 20
48.8527080681
 30
0.0
 40
0.0148999999999901
100
AcDbArc
 50
90.0
 51
180.0
  0
LINE
  5
42E
330
1F
100
AcDbEntity
  8
0
  6
Continuous
 62
     7
370
    30
100
AcDbLine
 10
47.7013941271
 20
48.8676080662
 30
0.0
 11
47.2941941212
 21
48.8676080662
 31
0.0
  0
ARC
  5
42F
330
1F
100
AcDbEntity
  8
0
  6
Continuous
 62
     7
370
    30
100
AcDbCircle
 10
47.7013941234
 20
48.8527080681
 30
0.0
 40
0.0148999999999972
100
AcDbArc
 50
0.0
 51
90.0
  0
LINE
  5
430
330
1F
100
AcDbEntity
  8
0
  6
Continuous
 62
     7
370
    30
100
AcDbLine
 10
47.716294115
 20
48.6955080694
 30
0.0
 11
47.716294115
 21
48.8527080692
 31
0.0
  0
ARC
  5
431
330
1F
100
AcDbEntity
  8
0
  6
Continuous
 62
     7
370
    30
100
AcDbCircle
 10
47.7013941234
 20
48.6955080681
 30
0.0
 40
0.0148999999999972
100
AcDbArc
 50
270.0
 51
0.0
  0
LINE
  5
432
330
1F
100
AcDbEntity
  8
0
  6
Continuous
 62
     7
370
    30
100
AcDbLine
 10
47.6691941258
 20
48.6806080723
 30
0.0
 11
47.7013941271
 21
48.6806080723
 31
0.0
  0
ARC
  5
433
330
1F
100
AcDbEntity
  8
0
  6
Continuous
 62
     7
370
    30
100
AcDbCircle
 10
47.6691941234
 20
48.6955080681
 30
0.0
 40
0.0149000000000044
100
AcDbArc
 50
180.0
 51
270.0
  0
LINE
  5
434
330
1F
100
AcDbEntity
  8
0
  6
Continuous
 62
     7
370
    30
100
AcDbLine
 10
47.6542941196
 20
48.790708068
 30
0.0
 11
47.6542941196
 21
48.6955080694
 31
0.0
  0
ARC
  5
435
330
1F
100
AcDbEntity
  8
0
  6
Continuous
 62
     7
370
    30
100
AcDbCircle
 10
47.6393941234
 20
48.7907080681
 30
0.0
 40
0.0149000000000044
100
AcDbArc
 50
0.0
 51
90.0
  0
LINE
  5
436
330
1F
100
AcDbEntity
  8
0
  6
Continuous
 62
     7
370
    30
100
AcDbLine
 10
47.5441941227
 20
48.8056080679
 30
0.0
 11
47.6393941225
 21
48.8056080679
 31
0.0
  0
ARC
  5
437
330
1F
100
AcDbEntity
  8
0
  6
Continuous
 62
     7
370
    30
100
AcDbCircle
 10
47.5441941234
 20
48.7907080681
 30
0.0
 40
0.0149000000000044
100
AcDbArc
 50
90.0
 51
180.0
  0
LINE
  5
438
330
1F
100
AcDbEntity
  8
0
  6
Continuous
 62
     7
370
    30
100
AcDbLine
 10
47.5292941234
 20
47.508508115
 30
0.0
 11
47.5292941234
 21
48.790708068
 31
0.0
  0
ARC
  5
439
330
1F
100
AcDbEntity
  8
0
  6
Continuous
 62
     7
370
    30
100
AcDbCircle
 10
47.5441941234
 20
47.5085080681
 30
0.0
 40
0.0149000000000044
100
AcDbArc
 50
180.0
 51
270.0
  0
LINE
  5
43A
330
1F
100
AcDbEntity
  8
0
  6
Continuous
 62
     7
370
    30
100
AcDbLine
 10
47.6393941225
 20
47.4936081271
 30
0.0
 11
47.5441941227
 21
47.4936081271
 31
0.0
  0
ARC
  5
43B
330
1F
100
AcDbEntity
  8
0
  6
Continuous
 62
     7
370
    30
100
AcDbCircle
 10
47.6393941234
 20
47.5085080681
 30
0.0
 40
0.0148999999999972
100
AcDbArc
 50
270.0
 51
0.0
  0
LINE
  5
43C
330
1F
100
AcDbEntity
  8
0
  6
Continuous
 62
     7
370
    30
100
AcDbLine
 10
47.6542941196
 20
47.7917080568
 30
0.0
 11
47.6542941196
 21
47.508508115
 31
0.0
  0
ARC
  5
43D
330
1F
100
AcDbEntity
  8
0
  6
Continuous
 62
     7
370
    30
100
AcDbCircle
 10
47.6691941234
 20
47.7917080681
 30
0.0
 40
0.0149000000000044
100
AcDbArc
 50
90.0
 51
180.0
  0
LINE
  5
43E
330
1F
100
AcDbEntity
  8
0
  6
Continuous
 62
     7
370
    30
100
AcDbLine
 10
47.7013941271
 20
47.8066080447
 30
0.0
 11
47.6691941258
 21
47.8066080447
 31
0.0
  0
ARC
  5
43F
330
1F
100
AcDbEntity
  8
0
  6
Continuous
 62
     7
370
    30
100
AcDbCircle
 10
47.7013941234
 20
47.7917080681
 30
0.0
 40
0.0149000000000044
100
AcDbArc
 50
0.0
 51
90.0
  0
LINE
  5
440
330
1F
100
AcDbEntity
  8
0
  6
Continuous
 62
     7
370
    30
100
AcDbLine
 10
47.716294115
 20
47.4465081379
 30
0.0
 11
47.716294115
 21
47.7917080568
 31
0.0
  0
ARC
  5
441
330
1F
100
AcDbEntity
  8
0
  6
Continuous
 62
     7
370
    30
100
AcDbCircle
 10
47.7013941234
 20
47.4465080681
 30
0.0
 40
0.0148999999999972
100
AcDbArc
 50
270.0
 51
0.0
  0
LINE
  5
442
330
1F
100
AcDbEntity
  8
0
  6
Continuous
 62
     7
370
    30
100
AcDbLine
 10
47.5441941227
 20
47.4316080034
 30
0.0
 11
47.7013941271
 21
47.4316080034
 31
0.0
  0
ARC
  5
443
330
1F
100
AcDbEntity
  8
0
  6
Continuous
 62
     7
370
    30
100
AcDbCircle
 10
47.5441941234
 20
47.4167080681
 30
0.0
 40
0.0148999999999972
100
AcDbArc
 50
90.0
 51
180.0
  0
LINE
  5
444
330
1F
100
AcDbEntity
  8
0
  6
Continuous
 62
     7
370
    30
100
AcDbLine
 10
47.5292941234
 20
47.3467799166
 30
0.0
 11
47.5292941234
 21
47.4167080155
 31
0.0
  0
ARC
  5
445
330
1F
100
AcDbEntity
  8
0
  6
Continuous
 62
     7
370
    30
100
AcDbCircle
 10
47.5441941234
 20
47.3467798501
 30
0.0
 40
0.0148999999999972
100
AcDbArc
 50
180.0
 51
225.0
  0
LINE
  5
446
330
1F
100
AcDbEntity
  8
0
  6
Continuous
 62
     7
370
    30
100
AcDbLine
 10
47.6189300139
 20
47.2509721968
 30
0.0
 11
47.5336582313
 21
47.336243945
 31
0.0
  0
ARC
  5
447
330
1F
100
AcDbEntity
  8
0
  6
Continuous
 62
     7
370
    30
100
AcDbCircle
 10
47.6294659054
 20
47.2615080681
 30
0.0
 40
0.0149000000000044
100
AcDbArc
 50
225.0
 51
270.0
  0
LINE
  5
448
330
1F
100
AcDbEntity
  8
0
  6
Continuous
 62
     7
370
    30
100
AcDbLine
 10
48.451894154
 20
47.2466080338
 30
0.0
 11
47.6294659031
 21
47.2466080338
 31
0.0
  0
ARC
  5
449
330
1F
100
AcDbEntity
  8
0
  6
Continuous
 62
     7
370
    30
100
AcDbCircle
 10
47.4982941234
 20
47.2628550451
 30
0.0
 40
0.0149000000000009
100
AcDbArc
 50
45.0
 51
135.0
  0
LINE
  5
44A
330
1F
100
AcDbEntity
  8
0
  6
Continuous
 62
     7
370
    30
100
AcDbLine
 10
47.3671223437
 20
47.2466080338
 30
0.0
 11
46.5446940928
 21
47.2466080338
 31
0.0
  0
ARC
  5
44B
330
1F
100
AcDbEntity
  8
0
  6
Continuous
 62
     7
370
    30
100
AcDbCircle
 10
47.3671223413
 20
47.2615080681
 30
0.0
 40
0.0149000000000044
100
AcDbArc
 50
270.0
 51
315.0
  0
LINE
  5
44C
330
1F
100
AcDbEntity
  8
0
  6
Continuous
 62
     7
370
    30
100
AcDbLine
 10
47.4629300154
 20
47.336243945
 30
0.0
 11
47.3776582328
 21
47.2509721968
 31
0.0
  0
ARC
  5
44D
330
1F
100
AcDbEntity
  8
0
  6
Continuous
 62
     7
370
    30
100
AcDbCircle
 10
47.4523941234
 20
47.3467798501
 30
0.0
 40
0.0149000000000009
100
AcDbArc
 50
315.0
 51
0.0
  0
LINE
  5
44E
330
1F
100
AcDbEntity
  8
0
  6
Continuous
 62
     7
370
    30
100
AcDbLine
 10
47.4672941234
 20
47.4167080155
 30
0.0
 11
47.4672941234
 21
47.3467799166
 31
0.0
  0
ARC
  5
44F
330
1F
100
AcDbEntity
  8
0
  6
Continuous
 62
     7
370
    30
100
AcDbCircle
 10
47.4523941234
 20
47.4167080681
 30
0.0
 40
0.0148999999999972
100
AcDbArc
 50
0.0
 51
90.0
  0
LINE
  5
450
330
1F
100
AcDbEntity
  8
0
  6
Continuous
 62
     7
370
    30
100
AcDbLine
 10
47.2941941212
 20
47.4316080034
 30
0.0
 11
47.452394124
 21
47.4316080034
 31
0.0
  0
ARC
  5
451
330
1F
100
AcDbEntity
  8
0
  6
Continuous
 62
     7
370
    30
100
AcDbCircle
 10
47.2941941234
 20
47.4465080681
 30
0.0
 40
0.0149000000000044
100
AcDbArc
 50
180.0
 51
270.0
  0
LINE
  5
452
330
1F
100
AcDbEntity
  8
0
  6
Continuous
 62
     7
370
    30
100
AcDbLine
 10
47.2792941149
 20
47.7917080568
 30
0.0
 11
47.2792941149
 21
47.4465081379
 31
0.0
  0
ARC
  5
453
330
1F
100
AcDbEntity
  8
0
  6
Continuous
 62
     7
370
    30
100
AcDbCircle
 10
47.2941941234
 20
47.7917080681
 30
0.0
 40
0.0148999999999972
100
AcDbArc
 50
90.0
 51
180.0
  0
LINE
  5
454
330
1F
100
AcDbEntity
  8
0
  6
Continuous
 62
     7
370
    30
100
AcDbLine
 10
47.327394121
 20
47.8066080447
 30
0.0
 11
47.2941941212
 21
47.8066080447
 31
0.0
  0
ARC
  5
455
330
1F
100
AcDbEntity
  8
0
  6
Continuous
 62
     7
370
    30
100
AcDbCircle
 10
47.3273941234
 20
47.7917080681
 30
0.0
 40
0.0148999999999972
100
AcDbArc
 50
0.0
 51
90.0
  0
LINE
  5
456
330
1F
100
AcDbEntity
  8
0
  6
Continuous
 62
     7
370
    30
100
AcDbLine
 10
47.3422941272
 20
47.508508115
 30
0.0
 11
47.3422941272
 21
47.7917080568
 31
0.0
  0
ARC
  5
457
330
1F
100
AcDbEntity
  8
0
  6
Continuous
 62
     7
370
    30
100
AcDbCircle
 10
47.3571941234
 20
47.5085080681
 30
0.0
 40
0.0149000000000044
100
AcDbArc
 50
180.0
 51
270.0
  0
LINE
  5
458
330
1F
100
AcDbEntity
  8
0
  6
Continuous
 62
     7
370
    30
100
AcDbLine
 10
47.452394124
 20
47.4936081271
 30
0.0
 11
47.3571941242
 21
47.4936081271
 31
0.0
  0
ARC
  5
459
330
1F
100
AcDbEntity
  8
0
  6
Continuous
 62
     7
370
    30
100
AcDbCircle
 10
47.4523941234
 20
47.5085080681
 30
0.0
 40
0.0149000000000115
100
AcDbArc
 50
270.0
 51
0.0
  0
LINE
  5
45A
330
1F
100
AcDbEntity
  8
0
  6
Continuous
 62
     7
370
    30
100
AcDbLine
 10
47.4672941234
 20
48.790708068
 30
0.0
 11
47.4672941234
 21
47.508508115
 31
0.0
  0
ARC
  5
45B
330
1F
100
AcDbEntity
  8
0
  6
Continuous
 62
     7
370
    30
100
AcDbCircle
 10
47.4523941234
 20
48.7907080681
 30
0.0
 40
0.0149000000000044
100
AcDbArc
 50
0.0
 51
90.0
  0
LINE
  5
45C
330
1F
100
AcDbEntity
  8
0
  6
Continuous
 62
     7
370
    30
100
AcDbLine
 10
47.3571941242
 20
48.8056080679
 30
0.0
 11
47.452394124
 21
48.8056080679
 31
0.0
  0
ARC
  5
45D
330
1F
100
AcDbEntity
  8
0
  6
Continuous
 62
     7
370
    30
100
AcDbCircle
 10
48.4518941234
 20
47.2317080681
 30
0.0
 40
0.0148999999999972
100
AcDbArc
 50
0.0
 51
90.0
  0
LINE
  5
45E
330
1F
100
AcDbEntity
  8
0
  6
Continuous
 62
     7
370
    30
100
AcDbLine
 10
48.4667941418
 20
47.1995080446
 30
0.0
 11
48.4667941418
 21
47.231708046
 31
0.0
  0
ARC
  5
45F
330
1F
100
AcDbEntity
  8
0
  6
Continuous
 62
     7
370
    30
100
AcDbCircle
 10
48.4518941234
 20
47.1995080681
 30
0.0
 40
0.0148999999999972
100
AcDbArc
 50
270.0
 51
0.0
  0
LINE
  5
460
330
1F
100
AcDbEntity
  8
0
  6
Continuous
 62
     7
370
    30
100
AcDbLine
 10
47.6037846647
 20
47.1846080567
 30
0.0
 11
48.451894154
 21
47.1846080567
 31
0.0
  0
ARC
  5
461
330
1F
100
AcDbEntity
  8
0
  6
Continuous
 62
     7
370
    30
100
AcDbCircle
 10
47.3928035822
 20
47.1995080681
 30
0.0
 40
0.0149000000000044
100
AcDbArc
 50
270.0
 51
315.0
  0
LINE
  5
462
330
1F
100
AcDbEntity
  8
0
  6
Continuous
 62
     7
370
    30
100
AcDbLine
 10
47.4033394711
 20
47.1889722196
 30
0.0
 11
47.487758232
 21
47.2733909644
 31
0.0
  0
ARC
  5
463
330
1F
100
AcDbEntity
  8
0
  6
Continuous
 62
     7
370
    30
100
AcDbCircle
 10
46.5446941234
 20
47.2317080681
 30
0.0
 40
0.0149000000000044
100
AcDbArc
 50
90.0
 51
180.0
  0
LINE
  5
464
330
1F
100
AcDbEntity
  8
0
  6
Continuous
 62
     7
370
    30
100
AcDbLine
 10
46.5297941049
 20
47.231708046
 30
0.0
 11
46.5297941049
 21
47.1995080446
 31
0.0
  0
ARC
  5
465
330
1F
100
AcDbEntity
  8
0
  6
Continuous
 62
     7
370
    30
100
AcDbCircle
 10
46.5446941234
 20
47.1995080681
 30
0.0
 40
0.0149000000000044
100
AcDbArc
 50
180.0
 51
270.0
  0
LINE
  5
466
330
1F
100
AcDbEntity
  8
0
  6
Continuous
 62
     7
370
    30
100
AcDbLine
 10
46.5446940928
 20
47.1846080567
 30
0.0
 11
47.392803582
 21
47.1846080567
 31
0.0
  0
LINE
  5
467
330
1F
100
AcDbEntity
  8
0
  6
Continuous
 62
     7
370
    30
100
AcDbLine
 10
47.5088300148
 20
47.2733909644
 30
0.0
 11
47.5932487756
 21
47.1889722196
 31
0.0
  0
ARC
  5
468
330
1F
100
AcDbEntity
  8
0
  6
Continuous
 62
     7
370
    30
100
AcDbCircle
 10
47.6037846646
 20
47.1995080681
 30
0.0
 40
0.0149000000000044
100
AcDbArc
 50
225.0
 51
270.0
  0
LINE
  5
469
330
1F
100
AcDbEntity
  8
0
  6
Continuous
 62
     7
370
    30
100
AcDbLine
 10
51.016794144
 20
47.6387750635
 30
0.0
 11
51.016794144
 21
47.9637751091
 31
0.0
  0
LINE
  5
46A
330
1F
100
AcDbEntity
  8
0
  6
Continuous
 62
     7
370
    30
100
AcDbLine
 10
51.033794081
 20
47.6387750635
 30
0.0
 11
51.033794081
 21
47.9637751091
 31
0.0
  0
LINE
  5
46B
330
1F
100
AcDbEntity
  8
0
  6
Continuous
 62
     7
370
    30
100
AcDbLine
 10
51.1237941613
 20
47.7133046292
 30
0.0
 11
51.033794081
 21
47.7133046292
 31
0.0
  0
LINE
  5
46C
330
1F
100
AcDbEntity
  8
0
  6
Continuous
 62
     7
370
    30
100
AcDbLine
 10
51.1237941613
 20
47.8563903162
 30
0.0
 11
51.033794081
 21
47.8563903162
 31
0.0
  0
LINE
  5
46D
330
1F
100
AcDbEntity
  8
0
  6
Continuous
 62
     7
370
    30
100
AcDbLine
 10
51.1237941613
 20
47.7133046292
 30
0.0
 11
51.1237941613
 21
47.8563903162
 31
0.0
  0
LINE
  5
46E
330
1F
100
AcDbEntity
  8
0
  6
Continuous
 62
     7
370
    30
100
AcDbLine
 10
51.1237941613
 20
47.9443607733
 30
0.0
 11
51.033794081
 21
47.9443607733
 31
0.0
  0
LINE
  5
46F
330
1F
100
AcDbEntity
  8
0
  6
Continuous
 62
     7
370
    30
100
AcDbLine
 10
51.1237941613
 20
47.8563903162
 30
0.0
 11
51.1237941613
 21
47.9443607733
 31
0.0
  0
LINE
  5
470
330
1F
100
AcDbEntity
  8
0
  6
Continuous
 62
     7
370
    30
100
AcDbLine
 10
51.0737940189
 20
47.6914747947
 30
0.0
 11
51.0737940189
 21
47.680019307
 31
0.0
  0
LINE
  5
471
330
1F
100
AcDbEntity
  8
0
  6
Continuous
 62
     7
370
    30
100
AcDbLine
 10
51.0737940189
 20
47.680019307
 30
0.0
 11
51.1237941613
 21
47.680019307
 31
0.0
  0
LINE
  5
472
330
1F
100
AcDbEntity
  8
0
  6
Continuous
 62
     7
370
    30
100
AcDbLine
 10
51.1237941613
 20
47.6581893992
 30
0.0
 11
51.1237941613
 21
47.680019307
 31
0.0
  0
LINE
  5
473
330
1F
100
AcDbEntity
  8
0
  6
Continuous
 62
     7
370
    30
100
AcDbLine
 10
51.1237941613
 20
47.6581893992
 30
0.0
 11
51.033794081
 21
47.6581893992
 31
0.0
  0
LINE
  5
474
330
1F
100
AcDbEntity
  8
0
  6
Continuous
 62
     7
370
    30
100
AcDbLine
 10
51.0737940189
 20
47.6914747947
 30
0.0
 11
51.1237941613
 21
47.6914747947
 31
0.0
  0
LINE
  5
475
330
1F
100
AcDbEntity
  8
0
  6
Continuous
 62
     7
370
    30
100
AcDbLine
 10
51.1237941613
 20
47.6914747947
 30
0.0
 11
51.1237941613
 21
47.7133046292
 31
0.0
  0
LINE
  5
476
330
1F
100
AcDbEntity
  8
0
  6
Continuous
 62
     7
370
    30
100
AcDbLine
 10
50.9632752156
 20
47.7550638868
 30
0.0
 11
50.9632752156
 21
47.7512750905
 31
0.0
  0
LINE
  5
477
330
1F
100
AcDbEntity
  8
0
  6
Continuous
 62
     7
370
    30
100
AcDbLine
 10
50.9632752156
 20
47.7550638868
 30
0.0
 11
50.9632752156
 21
47.851275082
 31
0.0
  0
LINE
  5
478
330
1F
100
AcDbEntity
  8
0
  6
Continuous
 62
     7
370
    30
100
AcDbLine
 10
50.8293055632
 20
47.7375036163
 30
0.0
 11
50.8293055632
 21
47.7322750834
 31
0.0
  0
LINE
  5
479
330
1F
100
AcDbEntity
  8
0
  6
Continuous
 62
     7
370
    30
100
AcDbLine
 10
50.8293055632
 20
47.7375036163
 30
0.0
 11
50.8293055632
 21
47.8702750892
 31
0.0
  0
LINE
  5
47A
330
1F
100
AcDbEntity
  8
0
  6
Continuous
 62
     7
370
    30
100
AcDbLine
 10
50.8183359033
 20
47.7550638868
 30
0.0
 11
50.8183359033
 21
47.7512750905
 31
0.0
  0
LINE
  5
47B
330
1F
100
AcDbEntity
  8
0
  6
Continuous
 62
     7
370
    30
100
AcDbLine
 10
50.8183359033
 20
47.7550638868
 30
0.0
 11
50.8183359033
 21
47.851275082
 31
0.0
  0
LINE
  5
47C
330
1F
100
AcDbEntity
  8
0
  6
Continuous
 62
     7
370
    30
100
AcDbLine
 10
50.830305525
 20
47.7375036163
 30
0.0
 11
50.830305525
 21
47.7322750834
 31
0.0
  0
LINE
  5
47D
330
1F
100
AcDbEntity
  8
0
  6
Continuous
 62
     7
370
    30
100
AcDbLine
 10
50.830305525
 20
47.7375036163
 30
0.0
 11
50.830305525
 21
47.8702750892
 31
0.0
  0
LINE
  5
47E
330
1F
100
AcDbEntity
  8
0
  6
Continuous
 62
     7
370
    30
100
AcDbLine
 10
50.7693055097
 20
47.7375036163
 30
0.0
 11
50.7693055097
 21
47.7322750834
 31
0.0
  0
LINE
  5
47F
330
1F
100
AcDbEntity
  8
0
  6
Continuous
 62
     7
370
    30
100
AcDbLine
 10
50.7693055097
 20
47.7375036163
 30
0.0
 11
50.7693055097
 21
47.8702750892
 31
0.0
  0
LINE
  5
480
330
1F
100
AcDbEntity
  8
0
  6
Continuous
 62
     7
370
    30
100
AcDbLine
 10
50.7683055479
 20
47.7895719548
 30
0.0
 11
50.7683055479
 21
47.8702750892
 31
0.0
  0
LINE
  5
481
330
1F
100
AcDbEntity
  8
0
  6
Continuous
 62
     7
370
    30
100
AcDbLine
 10
50.7083054944
 20
47.7923371762
 30
0.0
 11
50.7083054944
 21
47.8702750892
 31
0.0
  0
LINE
  5
482
330
1F
100
AcDbEntity
  8
0
  6
Continuous
 62
     7
370
    30
100
AcDbLine
 10
50.7073055326
 20
47.7896588538
 30
0.0
 11
50.7073055326
 21
47.8702750892
 31
0.0
  0
LINE
  5
483
330
1F
100
AcDbEntity
  8
0
  6
Continuous
 62
     7
370
    30
100
AcDbLine
 10
51.0123056092
 20
47.7375036163
 30
0.0
 11
51.0123056092
 21
47.7322750834
 31
0.0
  0
LINE
  5
484
330
1F
100
AcDbEntity
  8
0
  6
Continuous
 62
     7
370
    30
100
AcDbLine
 10
51.0123056092
 20
47.7375036163
 30
0.0
 11
51.0123056092
 21
47.8702750892
 31
0.0
  0
LINE
  5
485
330
1F
100
AcDbEntity
  8
0
  6
Continuous
 62
     7
370
    30
100
AcDbLine
 10
50.7192751543
 20
47.8005620745
 30
0.0
 11
50.7192751543
 21
47.851275082
 31
0.0
  0
LINE
  5
486
330
1F
100
AcDbEntity
  8
0
  6
Continuous
 62
     7
370
    30
100
AcDbLine
 10
50.7802751696
 20
47.7550638868
 30
0.0
 11
50.7802751696
 21
47.7512750905
 31
0.0
  0
LINE
  5
487
330
1F
100
AcDbEntity
  8
0
  6
Continuous
 62
     7
370
    30
100
AcDbLine
 10
50.7802751696
 20
47.7550638868
 30
0.0
 11
50.7802751696
 21
47.851275082
 31
0.0
  0
LINE
  5
488
330
1F
100
AcDbEntity
  8
0
  6
Continuous
 62
     7
370
    30
100
AcDbLine
 10
51.0013359493
 20
47.7550638868
 30
0.0
 11
51.0013359493
 21
47.7512750905
 31
0.0
  0
LINE
  5
489
330
1F
100
AcDbEntity
  8
0
  6
Continuous
 62
     7
370
    30
100
AcDbLine
 10
51.0013359493
 20
47.7550638868
 30
0.0
 11
51.0013359493
 21
47.851275082
 31
0.0
  0
LINE
  5
48A
330
1F
100
AcDbEntity
  8
0
  6
Continuous
 62
     7
370
    30
100
AcDbLine
 10
50.6963358727
 20
47.7550638868
 30
0.0
 11
50.6963358727
 21
47.7512750905
 31
0.0
  0
LINE
  5
48B
330
1F
100
AcDbEntity
  8
0
  6
Continuous
 62
     7
370
    30
100
AcDbLine
 10
50.6963358727
 20
47.7550638868
 30
0.0
 11
50.6963358727
 21
47.851275082
 31
0.0
  0
LINE
  5
48C
330
1F
100
AcDbEntity
  8
0
  6
Continuous
 62
     7
370
    30
100
AcDbLine
 10
50.841275185
 20
47.7550638868
 30
0.0
 11
50.841275185
 21
47.7512750905
 31
0.0
  0
LINE
  5
48D
330
1F
100
AcDbEntity
  8
0
  6
Continuous
 62
     7
370
    30
100
AcDbLine
 10
50.841275185
 20
47.7550638868
 30
0.0
 11
50.841275185
 21
47.851275082
 31
0.0
  0
LINE
  5
48E
330
1F
100
AcDbEntity
  8
0
  6
Continuous
 62
     7
370
    30
100
AcDbLine
 10
50.757335888
 20
47.8003509503
 30
0.0
 11
50.757335888
 21
47.851275082
 31
0.0
  0
LINE
  5
48F
330
1F
100
AcDbEntity
  8
0
  6
Continuous
 62
     7
370
    30
100
AcDbLine
 10
50.8913055403
 20
47.7375036163
 30
0.0
 11
50.8913055403
 21
47.7322750834
 31
0.0
  0
LINE
  5
490
330
1F
100
AcDbEntity
  8
0
  6
Continuous
 62
     7
370
    30
100
AcDbLine
 10
50.8913055403
 20
47.7375036163
 30
0.0
 11
50.8913055403
 21
47.8702750892
 31
0.0
  0
LINE
  5
491
330
1F
100
AcDbEntity
  8
0
  6
Continuous
 62
     7
370
    30
100
AcDbLine
 10
50.8903055786
 20
47.7375036163
 30
0.0
 11
50.8903055786
 21
47.7322750834
 31
0.0
  0
LINE
  5
492
330
1F
100
AcDbEntity
  8
0
  6
Continuous
 62
     7
370
    30
100
AcDbLine
 10
50.8903055786
 20
47.7375036163
 30
0.0
 11
50.8903055786
 21
47.8702750892
 31
0.0
  0
LINE
  5
493
330
1F
100
AcDbEntity
  8
0
  6
Continuous
 62
     7
370
    30
100
AcDbLine
 10
50.8793359186
 20
47.7550638868
 30
0.0
 11
50.8793359186
 21
47.7512750905
 31
0.0
  0
LINE
  5
494
330
1F
100
AcDbEntity
  8
0
  6
Continuous
 62
     7
370
    30
100
AcDbLine
 10
50.8793359186
 20
47.7550638868
 30
0.0
 11
50.8793359186
 21
47.851275082
 31
0.0
  0
LINE
  5
495
330
1F
100
AcDbEntity
  8
0
  6
Continuous
 62
     7
370
    30
100
AcDbLine
 10
50.6473057724
 20
47.7375036163
 30
0.0
 11
50.6473057724
 21
47.7322750834
 31
0.0
  0
LINE
  5
496
330
1F
100
AcDbEntity
  8
0
  6
Continuous
 62
     7
370
    30
100
AcDbLine
 10
50.6473057724
 20
47.7375036163
 30
0.0
 11
50.6473057724
 21
47.8702750892
 31
0.0
  0
LINE
  5
497
330
1F
100
AcDbEntity
  8
0
  6
Continuous
 62
     7
370
    30
100
AcDbLine
 10
50.6463055173
 20
47.7375036163
 30
0.0
 11
50.6463055173
 21
47.7322750834
 31
0.0
  0
LINE
  5
498
330
1F
100
AcDbEntity
  8
0
  6
Continuous
 62
     7
370
    30
100
AcDbLine
 10
50.6463055173
 20
47.7375036163
 30
0.0
 11
50.6463055173
 21
47.8702750892
 31
0.0
  0
LINE
  5
499
330
1F
100
AcDbEntity
  8
0
  6
Continuous
 62
     7
370
    30
100
AcDbLine
 10
50.658275139
 20
47.7550638868
 30
0.0
 11
50.658275139
 21
47.7512750905
 31
0.0
  0
LINE
  5
49A
330
1F
100
AcDbEntity
  8
0
  6
Continuous
 62
     7
370
    30
100
AcDbLine
 10
50.658275139
 20
47.7550638868
 30
0.0
 11
50.658275139
 21
47.851275082
 31
0.0
  0
LINE
  5
49B
330
1F
100
AcDbEntity
  8
0
  6
Continuous
 62
     7
370
    30
100
AcDbLine
 10
50.6353358573
 20
47.7550638868
 30
0.0
 11
50.6353358573
 21
47.7512750905
 31
0.0
  0
LINE
  5
49C
330
1F
100
AcDbEntity
  8
0
  6
Continuous
 62
     7
370
    30
100
AcDbLine
 10
50.6353358573
 20
47.7550638868
 30
0.0
 11
50.6353358573
 21
47.851275082
 31
0.0
  0
LINE
  5
49D
330
1F
100
AcDbEntity
  8
0
  6
Continuous
 62
     7
370
    30
100
AcDbLine
 10
50.6133965374
 20
47.7512750905
 30
0.0
 11
50.6133965374
 21
47.851275082
 31
0.0
  0
LINE
  5
49E
330
1F
100
AcDbEntity
  8
0
  6
Continuous
 62
     7
370
    30
100
AcDbLine
 10
51.1237941613
 20
47.680019307
 30
0.0
 11
51.1237941613
 21
47.6914747947
 31
0.0
  0
LINE
  5
49F
330
1F
100
AcDbEntity
  8
0
  6
Continuous
 62
     7
370
    30
100
AcDbLine
 10
43.9797941027
 20
47.8012750863
 30
0.0
 11
43.9797941027
 21
47.6387750635
 31
0.0
  0
LINE
  5
4A0
330
1F
100
AcDbEntity
  8
0
  6
Continuous
 62
     7
370
    30
100
AcDbLine
 10
43.9797941027
 20
47.9637751091
 30
0.0
 11
43.9797941027
 21
47.8012750863
 31
0.0
  0
LINE
  5
4A1
330
1F
100
AcDbEntity
  8
0
  6
Continuous
 62
     7
370
    30
100
AcDbLine
 10
43.9627941658
 20
47.8012750863
 30
0.0
 11
43.9627941658
 21
47.6387750635
 31
0.0
  0
LINE
  5
4A2
330
1F
100
AcDbEntity
  8
0
  6
Continuous
 62
     7
370
    30
100
AcDbLine
 10
43.9627941658
 20
47.9637751091
 30
0.0
 11
43.9627941658
 21
47.8012750863
 31
0.0
  0
LINE
  5
4A3
330
1F
100
AcDbEntity
  8
0
  6
Continuous
 62
     7
370
    30
100
AcDbLine
 10
43.8727940855
 20
47.8734438592
 30
0.0
 11
43.8727940855
 21
47.8162750997
 31
0.0
  0
LINE
  5
4A4
330
1F
100
AcDbEntity
  8
0
  6
Continuous
 62
     7
370
    30
100
AcDbLine
 10
43.8727940855
 20
47.8734438592
 30
0.0
 11
43.9627941658
 21
47.8734438592
 31
0.0
  0
LINE
  5
4A5
330
1F
100
AcDbEntity
  8
0
  6
Continuous
 62
     7
370
    30
100
AcDbLine
 10
43.8727940855
 20
47.7291063133
 30
0.0
 11
43.9627941658
 21
47.7291063133
 31
0.0
  0
LINE
  5
4A6
330
1F
100
AcDbEntity
  8
0
  6
Continuous
 62
     7
370
    30
100
AcDbLine
 10
43.8727940855
 20
47.7862750729
 30
0.0
 11
43.8727940855
 21
47.7291063133
 31
0.0
  0
LINE
  5
4A7
330
1F
100
AcDbEntity
  8
0
  6
Continuous
 62
     7
370
    30
100
AcDbLine
 10
43.9227942279
 20
47.7862750729
 30
0.0
 11
43.8727940855
 21
47.7862750729
 31
0.0
  0
LINE
  5
4A8
330
1F
100
AcDbEntity
  8
0
  6
Continuous
 62
     7
370
    30
100
AcDbLine
 10
43.9227942279
 20
47.7862750729
 30
0.0
 11
43.9227942279
 21
47.8162750997
 31
0.0
  0
LINE
  5
4A9
330
1F
100
AcDbEntity
  8
0
  6
Continuous
 62
     7
370
    30
100
AcDbLine
 10
43.9227942279
 20
47.8162750997
 30
0.0
 11
43.8727940855
 21
47.8162750997
 31
0.0
  0
LINE
  5
4AA
330
1F
100
AcDbEntity
  8
0
  6
Continuous
 62
     7
370
    30
100
AcDbLine
 10
43.8727940855
 20
47.9456126322
 30
0.0
 11
43.9627941658
 21
47.9456126322
 31
0.0
  0
LINE
  5
4AB
330
1F
100
AcDbEntity
  8
0
  6
Continuous
 62
     7
370
    30
100
AcDbLine
 10
43.8727940855
 20
47.9456126322
 30
0.0
 11
43.8727940855
 21
47.8734438592
 31
0.0
  0
LINE
  5
4AC
330
1F
100
AcDbEntity
  8
0
  6
Continuous
 62
     7
370
    30
100
AcDbLine
 10
43.8727940855
 20
47.6569375403
 30
0.0
 11
43.9627941658
 21
47.6569375403
 31
0.0
  0
LINE
  5
4AD
330
1F
100
AcDbEntity
  8
0
  6
Continuous
 62
     7
370
    30
100
AcDbLine
 10
43.8727940855
 20
47.7291063133
 30
0.0
 11
43.8727940855
 21
47.6569375403
 31
0.0
  0
LINE
  5
4AE
330
1F
100
AcDbEntity
  8
0
  6
Continuous
 62
     7
370
    30
100
AcDbLine
 10
44.3492824744
 20
47.7322750834
 30
0.0
 11
44.3492824744
 21
47.8702750892
 31
0.0
  0
LINE
  5
4AF
330
1F
100
AcDbEntity
  8
0
  6
Continuous
 62
     7
370
    30
100
AcDbLine
 10
44.3502827295
 20
47.7322750834
 30
0.0
 11
44.3502827295
 21
47.8702750892
 31
0.0
  0
LINE
  5
4B0
330
1F
100
AcDbEntity
  8
0
  6
Continuous
 62
     7
370
    30
100
AcDbLine
 10
44.3612523894
 20
47.7512750905
 30
0.0
 11
44.3612523894
 21
47.851275082
 31
0.0
  0
LINE
  5
4B1
330
1F
100
AcDbEntity
  8
0
  6
Continuous
 62
     7
370
    30
100
AcDbLine
 10
44.3383131077
 20
47.7512750905
 30
0.0
 11
44.3383131077
 21
47.851275082
 31
0.0
  0
LINE
  5
4B2
330
1F
100
AcDbEntity
  8
0
  6
Continuous
 62
     7
370
    30
100
AcDbLine
 10
44.1062826682
 20
47.7322750834
 30
0.0
 11
44.1062826682
 21
47.8702750892
 31
0.0
  0
LINE
  5
4B3
330
1F
100
AcDbEntity
  8
0
  6
Continuous
 62
     7
370
    30
100
AcDbLine
 10
44.1172523281
 20
47.7512750905
 30
0.0
 11
44.1172523281
 21
47.851275082
 31
0.0
  0
LINE
  5
4B4
330
1F
100
AcDbEntity
  8
0
  6
Continuous
 62
     7
370
    30
100
AcDbLine
 10
44.1052827064
 20
47.7322750834
 30
0.0
 11
44.1052827064
 21
47.8702750892
 31
0.0
  0
LINE
  5
4B5
330
1F
100
AcDbEntity
  8
0
  6
Continuous
 62
     7
370
    30
100
AcDbLine
 10
44.227282737
 20
47.7322750834
 30
0.0
 11
44.227282737
 21
47.8702750892
 31
0.0
  0
LINE
  5
4B6
330
1F
100
AcDbEntity
  8
0
  6
Continuous
 62
     7
370
    30
100
AcDbLine
 10
44.2282826988
 20
47.7895719548
 30
0.0
 11
44.2282826988
 21
47.8702750892
 31
0.0
  0
LINE
  5
4B7
330
1F
100
AcDbEntity
  8
0
  6
Continuous
 62
     7
370
    30
100
AcDbLine
 10
44.2163130771
 20
47.7512750905
 30
0.0
 11
44.2163130771
 21
47.851275082
 31
0.0
  0
LINE
  5
4B8
330
1F
100
AcDbEntity
  8
0
  6
Continuous
 62
     7
370
    30
100
AcDbLine
 10
44.1553130618
 20
47.7512750905
 30
0.0
 11
44.1553130618
 21
47.851275082
 31
0.0
  0
LINE
  5
4B9
330
1F
100
AcDbEntity
  8
0
  6
Continuous
 62
     7
370
    30
100
AcDbLine
 10
44.1662827217
 20
47.7322750834
 30
0.0
 11
44.1662827217
 21
47.8702750892
 31
0.0
  0
LINE
  5
4BA
330
1F
100
AcDbEntity
  8
0
  6
Continuous
 62
     7
370
    30
100
AcDbLine
 10
44.1672826835
 20
47.7322750834
 30
0.0
 11
44.1672826835
 21
47.8702750892
 31
0.0
  0
LINE
  5
4BB
330
1F
100
AcDbEntity
  8
0
  6
Continuous
 62
     7
370
    30
100
AcDbLine
 10
44.2892827141
 20
47.7896588538
 30
0.0
 11
44.2892827141
 21
47.8702750892
 31
0.0
  0
LINE
  5
4BC
330
1F
100
AcDbEntity
  8
0
  6
Continuous
 62
     7
370
    30
100
AcDbLine
 10
44.3002523741
 20
47.7512750905
 30
0.0
 11
44.3002523741
 21
47.851275082
 31
0.0
  0
LINE
  5
4BD
330
1F
100
AcDbEntity
  8
0
  6
Continuous
 62
     7
370
    30
100
AcDbLine
 10
43.9842826375
 20
47.7322750834
 30
0.0
 11
43.9842826375
 21
47.8702750892
 31
0.0
  0
LINE
  5
4BE
330
1F
100
AcDbEntity
  8
0
  6
Continuous
 62
     7
370
    30
100
AcDbLine
 10
44.2882827524
 20
47.7923371762
 30
0.0
 11
44.2882827524
 21
47.8702750892
 31
0.0
  0
LINE
  5
4BF
330
1F
100
AcDbEntity
  8
0
  6
Continuous
 62
     7
370
    30
100
AcDbLine
 10
44.2392523588
 20
47.8003509503
 30
0.0
 11
44.2392523588
 21
47.851275082
 31
0.0
  0
LINE
  5
4C0
330
1F
100
AcDbEntity
  8
0
  6
Continuous
 62
     7
370
    30
100
AcDbLine
 10
44.1782523434
 20
47.7512750905
 30
0.0
 11
44.1782523434
 21
47.851275082
 31
0.0
  0
LINE
  5
4C1
330
1F
100
AcDbEntity
  8
0
  6
Continuous
 62
     7
370
    30
100
AcDbLine
 10
44.2773130924
 20
47.8005620745
 30
0.0
 11
44.2773130924
 21
47.851275082
 31
0.0
  0
LINE
  5
4C2
330
1F
100
AcDbEntity
  8
0
  6
Continuous
 62
     7
370
    30
100
AcDbLine
 10
43.9952522975
 20
47.7512750905
 30
0.0
 11
43.9952522975
 21
47.851275082
 31
0.0
  0
LINE
  5
4C3
330
1F
100
AcDbEntity
  8
0
  6
Continuous
 62
     7
370
    30
100
AcDbLine
 10
44.0333130311
 20
47.7512750905
 30
0.0
 11
44.0333130311
 21
47.851275082
 31
0.0
  0
LINE
  5
4C4
330
1F
100
AcDbEntity
  8
0
  6
Continuous
 62
     7
370
    30
100
AcDbLine
 10
44.3831917093
 20
47.851275082
 30
0.0
 11
44.3831917093
 21
47.7512750905
 31
0.0
  0
LINE
  5
4C5
330
1F
100
AcDbEntity
  8
0
  6
Continuous
 62
     7
370
    30
100
AcDbLine
 10
47.4617941227
 20
47.9781635295
 30
0.0
 11
47.3477941278
 21
47.9781635295
 31
0.0
  0
LINE
  5
4C6
330
1F
100
AcDbEntity
  8
0
  6
Continuous
 62
     7
370
    30
100
AcDbLine
 10
47.4617941227
 20
47.9781635295
 30
0.0
 11
47.4617941227
 21
47.6155170055
 31
0.0
  0
LINE
  5
4C7
330
1F
100
AcDbEntity
  8
0
  6
Continuous
 62
     7
370
    30
100
AcDbLine
 10
47.3477941278
 20
47.9781635295
 30
0.0
 11
47.3477941278
 21
47.6155170055
 31
0.0
  0
LINE
  5
4C8
330
1F
100
AcDbEntity
  8
0
  6
Continuous
 62
     7
370
    30
100
AcDbLine
 10
47.4617941227
 20
47.9887751069
 30
0.0
 11
47.3477941278
 21
47.9887751069
 31
0.0
  0
LINE
  5
4C9
330
1F
100
AcDbEntity
  8
0
  6
Continuous
 62
     7
370
    30
100
AcDbLine
 10
47.4617941227
 20
47.9887751069
 30
0.0
 11
47.4617941227
 21
47.9781635295
 31
0.0
  0
LINE
  5
4CA
330
1F
100
AcDbEntity
  8
0
  6
Continuous
 62
     7
370
    30
100
AcDbLine
 10
47.3477941278
 20
47.9887751069
 30
0.0
 11
47.3477941278
 21
47.9781635295
 31
0.0
  0
LINE
  5
4CB
330
1F
100
AcDbEntity
  8
0
  6
Continuous
 62
     7
370
    30
100
AcDbLine
 10
47.4617941227
 20
47.6155170055
 30
0.0
 11
47.4617941227
 21
47.4969473952
 31
0.0
  0
LINE
  5
4CC
330
1F
100
AcDbEntity
  8
0
  6
Continuous
 62
     7
370
    30
100
AcDbLine
 10
47.3477941278
 20
47.6155170055
 30
0.0
 11
47.3477941278
 21
47.4969473952
 31
0.0
  0
LINE
  5
4CD
330
1F
100
AcDbEntity
  8
0
  6
Continuous
 62
     7
370
    30
100
AcDbLine
 10
47.6487941189
 20
47.9781635295
 30
0.0
 11
47.534794124
 21
47.9781635295
 31
0.0
  0
LINE
  5
4CE
330
1F
100
AcDbEntity
  8
0
  6
Continuous
 62
     7
370
    30
100
AcDbLine
 10
47.534794124
 20
47.9781635295
 30
0.0
 11
47.534794124
 21
47.6155170055
 31
0.0
  0
LINE
  5
4CF
330
1F
100
AcDbEntity
  8
0
  6
Continuous
 62
     7
370
    30
100
AcDbLine
 10
47.6487941189
 20
47.9781635295
 30
0.0
 11
47.6487941189
 21
47.6155170055
 31
0.0
  0
LINE
  5
4D0
330
1F
100
AcDbEntity
  8
0
  6
Continuous
 62
     7
370
    30
100
AcDbLine
 10
47.6487941189
 20
47.9887751069
 30
0.0
 11
47.534794124
 21
47.9887751069
 31
0.0
  0
LINE
  5
4D1
330
1F
100
AcDbEntity
  8
0
  6
Continuous
 62
     7
370
    30
100
AcDbLine
 10
47.534794124
 20
47.9887751069
 30
0.0
 11
47.534794124
 21
47.9781635295
 31
0.0
  0
LINE
  5
4D2
330
1F
100
AcDbEntity
  8
0
  6
Continuous
 62
     7
370
    30
100
AcDbLine
 10
47.6487941189
 20
47.9887751069
 30
0.0
 11
47.6487941189
 21
47.9781635295
 31
0.0
  0
LINE
  5
4D3
330
1F
100
AcDbEntity
  8
0
  6
Continuous
 62
     7
370
    30
100
AcDbLine
 10
47.534794124
 20
47.6155170055
 30
0.0
 11
47.534794124
 21
47.4969473952
 31
0.0
  0
LINE
  5
4D4
330
1F
100
AcDbEntity
  8
0
  6
Continuous
 62
     7
370
    30
100
AcDbLine
 10
47.6487941189
 20
47.6155170055
 30
0.0
 11
47.6487941189
 21
47.4969473952
 31
0.0
  0
LINE
  5
4D5
330
1F
100
AcDbEntity
  8
0
  6
Continuous
 62
     7
370
    30
100
AcDbLine
 10
50.8937941516
 20
47.9781635295
 30
0.0
 11
50.7817940321
 21
47.9781635295
 31
0.0
  0
LINE
  5
4D6
330
1F
100
AcDbEntity
  8
0
  6
Continuous
 62
     7
370
    30
100
AcDbLine
 10
50.7817940321
 20
47.9781635295
 30
0.0
 11
50.7817940321
 21
47.851275082
 31
0.0
  0
LINE
  5
4D7
330
1F
100
AcDbEntity
  8
0
  6
Continuous
 62
     7
370
    30
100
AcDbLine
 10
50.7817940321
 20
47.7512750905
 30
0.0
 11
50.7817940321
 21
47.6155170055
 31
0.0
  0
LINE
  5
4D8
330
1F
100
AcDbEntity
  8
0
  6
Continuous
 62
     7
370
    30
100
AcDbLine
 10
50.8937941516
 20
47.9887751069
 30
0.0
 11
50.7817940321
 21
47.9887751069
 31
0.0
  0
LINE
  5
4D9
330
1F
100
AcDbEntity
  8
0
  6
Continuous
 62
     7
370
    30
100
AcDbLine
 10
50.7817940321
 20
47.9887751069
 30
0.0
 11
50.7817940321
 21
47.9781635295
 31
0.0
  0
LINE
  5
4DA
330
1F
100
AcDbEntity
  8
0
  6
Continuous
 62
     7
370
    30
100
AcDbLine
 10
50.7817940321
 20
47.6155170055
 30
0.0
 11
50.7817940321
 21
47.4889089814
 31
0.0
  0
LINE
  5
4DB
330
1F
100
AcDbEntity
  8
0
  6
Continuous
 62
     7
370
    30
100
AcDbLine
 10
44.2147942146
 20
47.9781635295
 30
0.0
 11
44.1027940951
 21
47.9781635295
 31
0.0
  0
LINE
  5
4DC
330
1F
100
AcDbEntity
  8
0
  6
Continuous
 62
     7
370
    30
100
AcDbLine
 10
44.2147942146
 20
47.9781635295
 30
0.0
 11
44.2147942146
 21
47.851275082
 31
0.0
  0
LINE
  5
4DD
330
1F
100
AcDbEntity
  8
0
  6
Continuous
 62
     7
370
    30
100
AcDbLine
 10
44.2147942146
 20
47.7512750905
 30
0.0
 11
44.2147942146
 21
47.6155170055
 31
0.0
  0
LINE
  5
4DE
330
1F
100
AcDbEntity
  8
0
  6
Continuous
 62
     7
370
    30
100
AcDbLine
 10
44.2147942146
 20
47.9887751069
 30
0.0
 11
44.1027940951
 21
47.9887751069
 31
0.0
  0
LINE
  5
4DF
330
1F
100
AcDbEntity
  8
0
  6
Continuous
 62
     7
370
    30
100
AcDbLine
 10
44.2147942146
 20
47.9887751069
 30
0.0
 11
44.2147942146
 21
47.9781635295
 31
0.0
  0
LINE
  5
4E0
330
1F
100
AcDbEntity
  8
0
  6
Continuous
 62
     7
370
    30
100
AcDbLine
 10
44.2147942146
 20
47.6155170055
 30
0.0
 11
44.2147942146
 21
47.4889089814
 31
0.0
  0
LINE
  5
4E1
330
1F
100
AcDbEntity
  8
0
  6
Continuous
 62
     7
370
    30
100
AcDbLine
 10
50.4652942483
 20
48.3610251067
 30
0.0
 11
50.4652942483
 21
48.253775099
 31
0.0
  0
LINE
  5
4E2
330
1F
100
AcDbEntity
  8
0
  6
Continuous
 62
     7
370
    30
100
AcDbLine
 10
50.4652942483
 20
48.1917750852
 30
0.0
 11
50.4652942483
 21
48.111025128
 31
0.0
  0
LINE
  5
4E3
330
1F
100
AcDbEntity
  8
0
  6
Continuous
 62
     7
370
    30
100
AcDbLine
 10
47.9652941319
 20
48.111025128
 30
0.0
 11
48.8225699986
 21
48.111025128
 31
0.0
  0
LINE
  5
4E4
330
1F
100
AcDbEntity
  8
0
  6
Continuous
 62
     7
370
    30
100
AcDbLine
 10
49.0010181504
 20
48.111025128
 30
0.0
 11
50.4652942483
 21
48.111025128
 31
0.0
  0
LINE
  5
4E5
330
1F
100
AcDbEntity
  8
0
  6
Continuous
 62
     7
370
    30
100
AcDbLine
 10
47.9652941319
 20
48.3610251067
 30
0.0
 11
48.8752436967
 21
48.3610251067
 31
0.0
  0
LINE
  5
4E6
330
1F
100
AcDbEntity
  8
0
  6
Continuous
 62
     7
370
    30
100
AcDbLine
 10
48.9483445989
 20
48.3610251067
 30
0.0
 11
50.4652942483
 21
48.3610251067
 31
0.0
  0
LINE
  5
4E7
330
1F
100
AcDbEntity
  8
0
  6
Continuous
 62
     7
370
    30
100
AcDbLine
 10
47.9652941319
 20
48.3610251067
 30
0.0
 11
47.9652941319
 21
48.111025128
 31
0.0
  0
LINE
  5
4E8
330
1F
100
AcDbEntity
  8
0
  6
Continuous
 62
     7
370
    30
100
AcDbLine
 10
44.5312939984
 20
48.3610251067
 30
0.0
 11
45.4412436733
 21
48.3610251067
 31
0.0
  0
LINE
  5
4E9
330
1F
100
AcDbEntity
  8
0
  6
Continuous
 62
     7
370
    30
100
AcDbLine
 10
45.5143445755
 20
48.3610251067
 30
0.0
 11
47.0312941149
 21
48.3610251067
 31
0.0
  0
LINE
  5
4EA
330
1F
100
AcDbEntity
  8
0
  6
Continuous
 62
     7
370
    30
100
AcDbLine
 10
47.0312941149
 20
48.3610251067
 30
0.0
 11
47.0312941149
 21
48.253775099
 31
0.0
  0
LINE
  5
4EB
330
1F
100
AcDbEntity
  8
0
  6
Continuous
 62
     7
370
    30
100
AcDbLine
 10
47.0312941149
 20
48.1917750852
 30
0.0
 11
47.0312941149
 21
48.111025128
 31
0.0
  0
LINE
  5
4EC
330
1F
100
AcDbEntity
  8
0
  6
Continuous
 62
     7
370
    30
100
AcDbLine
 10
44.5312939984
 20
48.111025128
 30
0.0
 11
45.3885699751
 21
48.111025128
 31
0.0
  0
LINE
  5
4ED
330
1F
100
AcDbEntity
  8
0
  6
Continuous
 62
     7
370
    30
100
AcDbLine
 10
45.5670182736
 20
48.111025128
 30
0.0
 11
47.0312941149
 21
48.111025128
 31
0.0
  0
LINE
  5
4EE
330
1F
100
AcDbEntity
  8
0
  6
Continuous
 62
     7
370
    30
100
AcDbLine
 10
44.5312939984
 20
48.3610251067
 30
0.0
 11
44.5312939984
 21
48.111025128
 31
0.0
  0
LINE
  5
4EF
330
1F
100
AcDbEntity
  8
0
  6
Continuous
 62
     7
370
    30
100
AcDbLine
 10
47.9652941319
 20
48.111025128
 30
0.0
 11
47.9652941319
 21
48.0797750757
 31
0.0
  0
LINE
  5
4F0
330
1F
100
AcDbEntity
  8
0
  6
Continuous
 62
     7
370
    30
100
AcDbLine
 10
50.4652942483
 20
48.111025128
 30
0.0
 11
50.4652942483
 21
48.0797750757
 31
0.0
  0
LINE
  5
4F1
330
1F
100
AcDbEntity
  8
0
  6
Continuous
 62
     7
370
    30
100
AcDbLine
 10
47.0312941149
 20
48.111025128
 30
0.0
 11
47.0312941149
 21
48.0797750757
 31
0.0
  0
LINE
  5
4F2
330
1F
100
AcDbEntity
  8
0
  6
Continuous
 62
     7
370
    30
100
AcDbLine
 10
44.5312939984
 20
48.111025128
 30
0.0
 11
44.5312939984
 21
48.0797750757
 31
0.0
  0
LINE
  5
4F3
330
1F
100
AcDbEntity
  8
0
  6
Continuous
 62
     7
370
    30
100
AcDbLine
 10
47.5367941232
 20
48.0487750871
 30
0.0
 11
47.5367941232
 21
47.9887751069
 31
0.0
  0
ARC
  5
4F4
330
1F
100
AcDbEntity
  8
0
  6
Continuous
 62
     7
370
    30
100
AcDbCircle
 10
47.5677941234
 20
48.0487750933
 30
0.0
 40
0.0310000000000059
100
AcDbArc
 50
90.0
 51
180.0
  0
LINE
  5
4F5
330
1F
100
AcDbEntity
  8
0
  6
Continuous
 62
     7
370
    30
100
AcDbLine
 10
47.5677941255
 20
48.0797750757
 30
0.0
 11
50.862794163
 21
48.0797750757
 31
0.0
  0
ARC
  5
4F6
330
1F
100
AcDbEntity
  8
0
  6
Continuous
 62
     7
370
    30
100
AcDbCircle
 10
50.8627941234
 20
48.0487750933
 30
0.0
 40
0.0309999999999988
100
AcDbArc
 50
0.0
 51
90.0
  0
ARC
  5
4F7
330
1F
100
AcDbEntity
  8
0
  6
Continuous
 62
     7
370
    30
100
AcDbCircle
 10
50.7217941234
 20
47.8927750933
 30
0.0
 40
0.0619999999999976
100
AcDbArc
 50
14.5925506019
 51
90.0
  0
LINE
  5
4F8
330
1F
100
AcDbEntity
  8
0
  6
Continuous
 62
     7
370
    30
100
AcDbLine
 10
50.7217939786
 20
47.9547750864
 30
0.0
 11
47.7087941267
 21
47.9547750864
 31
0.0
  0
ARC
  5
4F9
330
1F
100
AcDbEntity
  8
0
  6
Continuous
 62
     7
370
    30
100
AcDbCircle
 10
47.7087941234
 20
47.8927750933
 30
0.0
 40
0.0619999999999976
100
AcDbArc
 50
90.0
 51
165.4074493979
  0
ARC
  5
4FA
330
1F
100
AcDbEntity
  8
0
  6
Continuous
 62
     7
370
    30
100
AcDbCircle
 10
44.1817941234
 20
48.7697750933
 30
0.0
 40
0.0309999999999988
100
AcDbArc
 50
0.0
 51
90.0
  0
LINE
  5
4FB
330
1F
100
AcDbEntity
  8
0
  6
Continuous
 62
     7
370
    30
100
AcDbLine
 10
44.2127939977
 20
48.7697750933
 30
0.0
 11
44.2127939977
 21
48.5527750932
 31
0.0
  0
ARC
  5
4FC
330
1F
100
AcDbEntity
  8
0
  6
Continuous
 62
     7
370
    30
100
AcDbCircle
 10
44.2747941234
 20
48.5527750933
 30
0.0
 40
0.0620000000000047
100
AcDbArc
 50
180.0
 51
270.0
  0
LINE
  5
4FD
330
1F
100
AcDbEntity
  8
0
  6
Continuous
 62
     7
370
    30
100
AcDbLine
 10
44.2747942682
 20
48.4907750978
 30
0.0
 11
47.2877941201
 21
48.4907750978
 31
0.0
  0
ARC
  5
4FE
330
1F
100
AcDbEntity
  8
0
  6
Continuous
 62
     7
370
    30
100
AcDbCircle
 10
47.2877941234
 20
48.5527750933
 30
0.0
 40
0.0620000000000047
100
AcDbArc
 50
270.0
 51
0.0
  0
LINE
  5
4FF
330
1F
100
AcDbEntity
  8
0
  6
Continuous
 62
     7
370
    30
100
AcDbLine
 10
47.3497941247
 20
48.5527750932
 30
0.0
 11
47.3497941247
 21
48.7697750933
 31
0.0
  0
ARC
  5
500
330
1F
100
AcDbEntity
  8
0
  6
Continuous
 62
     7
370
    30
100
AcDbCircle
 10
47.3807941234
 20
48.7697750933
 30
0.0
 40
0.0309999999999988
100
AcDbArc
 50
90.0
 51
180.0
  0
LINE
  5
501
330
1F
100
AcDbEntity
  8
0
  6
Continuous
 62
     7
370
    30
100
AcDbLine
 10
47.4287941212
 20
48.8007750933
 30
0.0
 11
47.3807941224
 21
48.8007750933
 31
0.0
  0
ARC
  5
502
330
1F
100
AcDbEntity
  8
0
  6
Continuous
 62
     7
370
    30
100
AcDbCircle
 10
47.4287941234
 20
48.7697750933
 30
0.0
 40
0.0309999999999988
100
AcDbArc
 50
0.0
 51
90.0
  0
LINE
  5
503
330
1F
100
AcDbEntity
  8
0
  6
Continuous
 62
     7
370
    30
100
AcDbLine
 10
47.4597941235
 20
48.396775097
 30
0.0
 11
47.4597941235
 21
48.7697750933
 31
0.0
  0
ARC
  5
504
330
1F
100
AcDbEntity
  8
0
  6
Continuous
 62
     7
370
    30
100
AcDbCircle
 10
44.1337941234
 20
48.7697750933
 30
0.0
 40
0.0310000000000059
100
AcDbArc
 50
90.0
 51
180.0
  0
ARC
  5
505
330
1F
100
AcDbEntity
  8
0
  6
Continuous
 62
     7
370
    30
100
AcDbCircle
 10
47.4287941234
 20
48.3967750933
 30
0.0
 40
0.0310000000000059
100
AcDbArc
 50
270.0
 51
0.0
  0
ARC
  5
506
330
1F
100
AcDbEntity
  8
0
  6
Continuous
 62
     7
370
    30
100
AcDbCircle
 10
44.1337941234
 20
48.3967750933
 30
0.0
 40
0.0309999999999988
100
AcDbArc
 50
180.0
 51
270.0
  0
LINE
  5
507
330
1F
100
AcDbEntity
  8
0
  6
Continuous
 62
     7
370
    30
100
AcDbLine
 10
47.4287941212
 20
48.3657751085
 30
0.0
 11
44.1337940837
 21
48.3657751085
 31
0.0
  0
LINE
  5
508
330
1F
100
AcDbEntity
  8
0
  6
Continuous
 62
     7
370
    30
100
AcDbLine
 10
47.6157941243
 20
48.8007750933
 30
0.0
 11
47.5677941255
 21
48.8007750933
 31
0.0
  0
ARC
  5
509
330
1F
100
AcDbEntity
  8
0
  6
Continuous
 62
     7
370
    30
100
AcDbCircle
 10
47.6157941234
 20
48.7697750933
 30
0.0
 40
0.0310000000000059
100
AcDbArc
 50
0.0
 51
90.0
  0
LINE
  5
50A
330
1F
100
AcDbEntity
  8
0
  6
Continuous
 62
     7
370
    30
100
AcDbLine
 10
47.6467941221
 20
48.7697750933
 30
0.0
 11
47.6467941221
 21
48.5527750932
 31
0.0
  0
ARC
  5
50B
330
1F
100
AcDbEntity
  8
0
  6
Continuous
 62
     7
370
    30
100
AcDbCircle
 10
47.7087941234
 20
48.5527750933
 30
0.0
 40
0.0619999999999976
100
AcDbArc
 50
180.0
 51
270.0
  0
LINE
  5
50C
330
1F
100
AcDbEntity
  8
0
  6
Continuous
 62
     7
370
    30
100
AcDbLine
 10
47.7087941267
 20
48.4907750978
 30
0.0
 11
50.7217939786
 21
48.4907750978
 31
0.0
  0
ARC
  5
50D
330
1F
100
AcDbEntity
  8
0
  6
Continuous
 62
     7
370
    30
100
AcDbCircle
 10
50.7217941234
 20
48.5527750933
 30
0.0
 40
0.0619999999999976
100
AcDbArc
 50
270.0
 51
0.0
  0
LINE
  5
50E
330
1F
100
AcDbEntity
  8
0
  6
Continuous
 62
     7
370
    30
100
AcDbLine
 10
50.783794249
 20
48.5527750932
 30
0.0
 11
50.783794249
 21
48.7697750933
 31
0.0
  0
ARC
  5
50F
330
1F
100
AcDbEntity
  8
0
  6
Continuous
 62
     7
370
    30
100
AcDbCircle
 10
50.8147941234
 20
48.7697750933
 30
0.0
 40
0.0310000000000059
100
AcDbArc
 50
90.0
 51
180.0
  0
ARC
  5
510
330
1F
100
AcDbEntity
  8
0
  6
Continuous
 62
     7
370
    30
100
AcDbCircle
 10
50.8627941234
 20
48.7697750933
 30
0.0
 40
0.0310000000000059
100
AcDbArc
 50
0.0
 51
90.0
  0
LINE
  5
511
330
1F
100
AcDbEntity
  8
0
  6
Continuous
 62
     7
370
    30
100
AcDbLine
 10
47.5367941232
 20
48.396775097
 30
0.0
 11
47.5367941232
 21
48.7697750933
 31
0.0
  0
ARC
  5
512
330
1F
100
AcDbEntity
  8
0
  6
Continuous
 62
     7
370
    30
100
AcDbCircle
 10
47.5677941234
 20
48.7697750933
 30
0.0
 40
0.0309999999999988
100
AcDbArc
 50
90.0
 51
180.0
  0
ARC
  5
513
330
1F
100
AcDbEntity
  8
0
  6
Continuous
 62
     7
370
    30
100
AcDbCircle
 10
50.8627941234
 20
48.3967750933
 30
0.0
 40
0.0309999999999988
100
AcDbArc
 50
270.0
 51
0.0
  0
LINE
  5
514
330
1F
100
AcDbEntity
  8
0
  6
Continuous
 62
     7
370
    30
100
AcDbLine
 10
50.862794163
 20
48.3657751085
 30
0.0
 11
47.5677941255
 21
48.3657751085
 31
0.0
  0
ARC
  5
515
330
1F
100
AcDbEntity
  8
0
  6
Continuous
 62
     7
370
    30
100
AcDbCircle
 10
47.5677941234
 20
48.3967750933
 30
0.0
 40
0.0310000000000059
100
AcDbArc
 50
180.0
 51
270.0
  0
ARC
  5
516
330
1F
100
AcDbEntity
  8
0
  6
Continuous
 62
     7
370
    30
100
AcDbCircle
 10
44.1337941234
 20
48.0487750933
 30
0.0
 40
0.0310000000000059
100
AcDbArc
 50
90.0
 51
180.0
  0
LINE
  5
517
330
1F
100
AcDbEntity
  8
0
  6
Continuous
 62
     7
370
    30
100
AcDbLine
 10
44.1337940837
 20
48.0797750757
 30
0.0
 11
47.4287941212
 21
48.0797750757
 31
0.0
  0
ARC
  5
518
330
1F
100
AcDbEntity
  8
0
  6
Continuous
 62
     7
370
    30
100
AcDbCircle
 10
47.4287941234
 20
48.0487750933
 30
0.0
 40
0.0310000000000059
100
AcDbArc
 50
0.0
 51
90.0
  0
LINE
  5
519
330
1F
100
AcDbEntity
  8
0
  6
Continuous
 62
     7
370
    30
100
AcDbLine
 10
47.4597941235
 20
48.0487750871
 30
0.0
 11
47.4597941235
 21
47.9887751069
 31
0.0
  0
ARC
  5
51A
330
1F
100
AcDbEntity
  8
0
  6
Continuous
 62
     7
370
    30
100
AcDbCircle
 10
47.2877941234
 20
47.8927750933
 30
0.0
 40
0.0620000000000144
100
AcDbArc
 50
14.5925506019
 51
90.0
  0
LINE
  5
51B
330
1F
100
AcDbEntity
  8
0
  6
Continuous
 62
     7
370
    30
100
AcDbLine
 10
47.2877941201
 20
47.9547750864
 30
0.0
 11
44.2747942682
 21
47.9547750864
 31
0.0
  0
ARC
  5
51C
330
1F
100
AcDbEntity
  8
0
  6
Continuous
 62
     7
370
    30
100
AcDbCircle
 10
44.2747941234
 20
47.8927750933
 30
0.0
 40
0.0620000000000047
100
AcDbArc
 50
90.0
 51
165.407449398
  0
LINE
  5
51D
330
1F
100
AcDbEntity
  8
0
  6
Continuous
 62
     8
370
     0
100
AcDbLine
 10
47.4617941227
 20
47.6155170055
 30
0.0
 11
47.3477941278
 21
47.6155170055
 31
0.0
  0
LINE
  5
51E
330
1F
100
AcDbEntity
  8
0
  6
Continuous
 62
     8
370
     0
100
AcDbLine
 10
47.6487941189
 20
47.6155170055
 30
0.0
 11
47.534794124
 21
47.6155170055
 31
0.0
  0
LINE
  5
51F
330
1F
100
AcDbEntity
  8
0
  6
Continuous
 62
     8
370
     0
100
AcDbLine
 10
50.8937941516
 20
47.6155170055
 30
0.0
 11
50.7817940321
 21
47.6155170055
 31
0.0
  0
LINE
  5
520
330
1F
100
AcDbEntity
  8
0
  6
Continuous
 62
     8
370
     0
100
AcDbLine
 10
44.2147942146
 20
47.6155170055
 30
0.0
 11
44.1027940951
 21
47.6155170055
 31
0.0
  0
ENDSEC
  0
SECTION
  2
OBJECTS
  0
DICTIONARY
  5
C
330
0
100
AcDbDictionary
281
     1
  3
ACAD_GROUP
350
D
  3
ACAD_LAYOUT
350
1A
  3
ACAD_MLINESTYLE
350
17
  3
ACAD_PLOTSETTINGS
350
19
  3
ACAD_PLOTSTYLENAME
350
E
  0
DICTIONARY
  5
D
102
{ACAD_REACTORS
330
C
102
}
330
C
100
AcDbDictionary
281
     1
  0
DICTIONARY
  5
1A
102
{ACAD_REACTORS
330
C
102
}
330
C
100
AcDbDictionary
281
     1
  3
Layout1
350
1E
  3
Layout2
350
26
  3
Model
350
22
  0
DICTIONARY
  5
17
102
{ACAD_REACTORS
330
C
102
}
330
C
100
AcDbDictionary
281
     1
  3
Standard
350
18
  0
DICTIONARY
  5
19
102
{ACAD_REACTORS
330
C
102
}
330
C
100
AcDbDictionary
281
     1
  0
ACDBDICTIONARYWDFLT
  5
E
102
{ACAD_REACTORS
330
C
102
}
330
C
100
AcDbDictionary
281
     1
  3
Normal
350
F
100
AcDbDictionaryWithDefault
340
F
  0
LAYOUT
  5
1E
102
{ACAD_REACTORS
330
1A
102
}
330
1A
100
AcDbPlotSettings
  1

  2
none_device
  4

  6

 40
0.0
 41
0.0
 42
0.0
 43
0.0
 44
0.0
 45
0.0
 46
0.0
 47
0.0
 48
0.0
 49
0.0
140
0.0
141
0.0
142
1.0
143
1.0
 70
   688
 72
     0
 73
     0
 74
     5
  7

 75
    16
147
1.0
148
0.0
149
0.0
100
AcDbLayout
  1
Layout1
 70
     1
 71
     1
 10
0.0
 20
0.0
 11
12.0
 21
9.0
 12
0.0
 22
0.0
 32
0.0
 14
1.0000000000E+20
 24
1.0000000000E+20
 34
1.0000000000E+20
 15
-1.0000000000E+20
 25
-1.0000000000E+20
 35
-1.0000000000E+20
146
0.0
 13
0.0
 23
0.0
 33
0.0
 16
1.0
 26
0.0
 36
0.0
 17
0.0
 27
1.0
 37
0.0
 76
     0
330
1B
  0
LAYOUT
  5
26
102
{ACAD_REACTORS
330
1A
102
}
330
1A
100
AcDbPlotSettings
  1

  2
none_device
  4

  6

 40
0.0
 41
0.0
 42
0.0
 43
0.0
 44
0.0
 45
0.0
 46
0.0
 47
0.0
 48
0.0
 49
0.0
140
0.0
141
0.0
142
1.0
143
1.0
 70
   688
 72
     0
 73
     0
 74
     5
  7

 75
    16
147
1.0
148
0.0
149
0.0
100
AcDbLayout
  1
Layout2
 70
     1
 71
     2
 10
0.0
 20
0.0
 11
0.0
 21
0.0
 12
0.0
 22
0.0
 32
0.0
 14
0.0
 24
0.0
 34
0.0
 15
0.0
 25
0.0
 35
0.0
146
0.0
 13
0.0
 23
0.0
 33
0.0
 16
1.0
 26
0.0
 36
0.0
 17
0.0
 27
1.0
 37
0.0
 76
     0
330
23
  0
LAYOUT
  5
22
102
{ACAD_REACTORS
330
1A
102
}
330
1A
100
AcDbPlotSettings
  1

  2
none_device
  4

  6

 40
0.0
 41
0.0
 42
0.0
 43
0.0
 44
0.0
 45
0.0
 46
0.0
 47
0.0
 48
0.0
 49
0.0
140
0.0
141
0.0
142
1.0
143
1.0
 70
  1712
 72
     0
 73
     0
 74
     0
  7

 75
     0
147
1.0
148
0.0
149
0.0
100
AcDbLayout
  1
Model
 70
     1
 71
     0
 10
0.0
 20
0.0
 11
100.0
 21
100.0
 12
0.0
 22
0.0
 32
0.0
 14
0.0
 24
0.0
 34
0.0
 15
100.0
 25
100.0
 35
0.0
146
0.0
 13
0.0
 23
0.0
 33
0.0
 16
1.0
 26
0.0
 36
0.0
 17
0.0
 27
1.0
 37
0.0
 76
     0
330
1F
331
29
  0
MLINESTYLE
  5
18
102
{ACAD_REACTORS
330
17
102
}
330
17
100
AcDbMlineStyle
  2
Standard
 70
     0
  3

 62
   256
 51
90.0
 52
90.0
 71
     2
 49
0.5
 62
   256
  6
BYLAYER
 49
-0.5
 62
   256
  6
BYLAYER
  0
ACDBPLACEHOLDER
  5
F
102
{ACAD_REACTORS
330
E
102
}
330
E
  0
ENDSEC
  0
EOF
